Табулатура Mike Oldfield | Cochise  (2) гитара табулатуры уроки тексты песен Mike Oldfield текст lyrics песня аккорды песни ноты нота электрогитара струна  
   А Б В Г Д Е Ж З И К Л М Н О П Р С Т У Ф Х Ч Ш Ы Э Ю Я       Разные песни
1-9 A B C D E F G H I J K L M N O P Q R S T U V W Y Z      Все исполнители

    



группа Mike Oldfield, Табулатура песни Cochise (2)

Группа: Mike Oldfield - другие аккорды (207),   об исполнителе (3 статей),   диски (26),   фотографии (18)
Табулатура песни: Cochise (2)
Просмотров: 1125
Прислал: squire (cailinsquires@yahoo.ie)




    
Cochise-Guitars Mike Oldfield
Lorenzo Montero (lmonteroh@terra.es)
Nylon  Acou Guitar
                                                            
E||------------------|------------------|------------------|
B||------------------|------------------|------------------|
G||------------------|------------------|------------------|
D||------------------|------------------|------------------|
A||------------------|------------------|------------------|
E||------------------|------------------|------------------|
                                                                
---------------7--5--|--7----------------|-----------7------7--|
------------7--------|-------------------|------7--------------|
---------------------|-------------------|---------------------|
---------------------|-------------------|---------------------|
---------------------|-------------------|---------------------|
---------------------|-------------------|---------------------|
                                                                
--5-----------------|-----------------5--|-----2--0------------|
-----7--------------|----------5---------|--5------------------|
--------------------|--------------------|---------------------|
--------------------|--------------------|---------------------|
--------------------|--------------------|---------------------|
--------------------|--------------------|---------------------|
                                                                  
----------0--2-0----0--|--2----------------|------------2--7--5--|
-----------------3-----|-------------------|---------------------|
-----------------------|-------------------|---------------------|
-----------------------|-------------------|---------------------|
-----------------------|-------------------|---------------------|
-----------------------|-------------------|---------------------|
                                                               
--7----------------|-----------9------7--|--5-----------------|
-------------------|------7--------------|-----7--------------|
-------------------|---------------------|--------------------|
-------------------|---------------------|--------------------|
-------------------|---------------------|--------------------|
-------------------|---------------------|--------------------|
                                                                   
-----------------5--|-----2--0------------|----------0--2-0----0--|
----------7---------|--5------------------|-----------------3-----|
--------------------|---------------------|-----------------------|
--------------------|---------------------|-----------------------|
--------------------|---------------------|-----------------------|
--------------------|---------------------|-----------------------|
                                                                 
--2----------------|--------2--0-----------|--------------------|
-------------------|--------------3--0-----|--0------------3----|
-------------------|--------------------2--|--------------------|
-------------------|-----------------------|--------------------|
-------------------|-----------------------|--------------------|
-------------------|-----------------------|--------------------|
                                                               
-----------------0--|--2------------5----|--------------2--5--|
--------------3-----|--------------------|--------------------|
--------------------|--------------------|--------------------|
--------------------|--------------------|--------------------|
--------------------|--------------------|--------------------|
--------------------|--------------------|--------------------|
                                                                
--7------------7--9--|--7------------5----|--5--2--------------|
---------------------|--------------------|--------------------|
---------------------|--------------------|--------------------|
---------------------|--------------------|--------------------|
---------------------|--------------------|--------------------|
---------------------|--------------------|--------------------|
                                                                  
--------2--0-----------|--------------------|-----------------0--|
--------------3--0-----|--0------------3----|--------------3-----|
--------------------2--|--------------------|--------------------|
-----------------------|--------------------|--------------------|
-----------------------|--------------------|--------------------|
-----------------------|--------------------|--------------------|
                                                                
--2------------5----|--------------2--5--|--7------------7--9--|
--------------------|--------------------|---------------------|
--------------------|--------------------|---------------------|
--------------------|--------------------|---------------------|
--------------------|--------------------|---------------------|
--------------------|--------------------|---------------------|
                                                              
--7------------5----|--5----------------|--2--0--------------|
--------------------|-------------------|--------------------|
--------------------|-------------------|--------------------|
--------------------|-------------------|--------------------|
--------------------|-------------------|--------------------|
--------------------|-------------------|--------------------|
                                                                            
------------------|------------------|------------------|------------------|
------------------|------------------|------------------|------------------|
------------------|------------------|------------------|------------------|
------------------|------------------|------------------|------------------|
------------------|------------------|------------------|------------------|
------------------|------------------|------------------|------------------|
                                                                            
------------------|------------------|------------------|------------------|
------------------|------------------|------------------|------------------|
------------------|------------------|------------------|------------------|
------------------|------------------|------------------|------------------|
------------------|------------------|------------------|------------------|
------------------|------------------|------------------|------------------|
                                                                            
------------------|------------------|------------------|------------------|
------------------|------------------|------------------|------------------|
------------------|------------------|------------------|------------------|
------------------|------------------|------------------|------------------|
------------------|------------------|------------------|------------------|
------------------|------------------|------------------|------------------|
                                                                            
------------------|------------------|------------------|------------------|
------------------|------------------|------------------|------------------|
------------------|------------------|------------------|------------------|
------------------|------------------|------------------|------------------|
------------------|------------------|------------------|------------------|
------------------|------------------|------------------|------------------|
                                                                            
------------------|------------------|------------------|------------------|
------------------|------------------|------------------|------------------|
------------------|------------------|------------------|------------------| ------------------|------------------|------------------|------------------| ------------------|------------------|------------------|------------------| ------------------|------------------|------------------|------------------| ------------------|------------------|------------------|------------------| ------------------|------------------|------------------|------------------| ------------------|------------------|------------------|------------------| ------------------|------------------|------------------|------------------| ------------------|------------------|------------------|------------------| ------------------|------------------|------------------|------------------| ------------------|------------------|------------------|------------------| ------------------|------------------|------------------|------------------| ------------------|------------------|------------------|------------------| ------------------|------------------|------------------|------------------| ------------------|------------------|------------------|------------------| ------------------|------------------|------------------|------------------| ------------------|------------------|------------------|------------2--7--5--| ------------------|------------------|------------------|---------------------| ------------------|------------------|------------------|---------------------| ------------------|------------------|------------------|---------------------| ------------------|------------------|------------------|---------------------| ------------------|------------------|------------------|---------------------| --7----------------|-----------7------7--|--5-----------------| -------------------|------7--------------|-----7--------------| -------------------|---------------------|--------------------| -------------------|---------------------|--------------------| -------------------|---------------------|--------------------| -------------------|---------------------|--------------------| -----------------5--|-----2--0------------|----------0--2-0----0--| ----------7---------|--5------------------|-----------------3-----| --------------------|---------------------|-----------------------| --------------------|---------------------|-----------------------| --------------------|---------------------|-----------------------| --------------------|---------------------|-----------------------| --2----------------|------------2--7--5--|--7----------------| -------------------|---------------------|-------------------| -------------------|---------------------|-------------------| -------------------|---------------------|-------------------| -------------------|---------------------|-------------------| -------------------|---------------------|-------------------| -----------9------7--|--5-----------------|-----------------5--| ------7--------------|-----7--------------|----------7---------| ---------------------|--------------------|--------------------| ---------------------|--------------------|--------------------| ---------------------|--------------------|--------------------| ---------------------|--------------------|--------------------| -----2--0------------|----------0--2-0----0--|--2----------------| --5------------------|-----------------3-----|-------------------| ---------------------|-----------------------|-------------------| ---------------------|-----------------------|-------------------| ---------------------|-----------------------|-------------------| ---------------------|-----------------------|-------------------| --------2--0-----------|--------------------|-----------------0--| --------------3--0-----|--0------------3----|--------------3-----| --------------------2--|--------------------|--------------------| -----------------------|--------------------|--------------------| -----------------------|--------------------|--------------------| -----------------------|--------------------|--------------------| --2------------5----|--------------2--5--|--7------------7--9--| --------------------|--------------------|---------------------| --------------------|--------------------|---------------------| --------------------|--------------------|---------------------| --------------------|--------------------|---------------------| --------------------|--------------------|---------------------| --7------------5----|--5--2--------------|--------2--0-----------| --------------------|--------------------|--------------3--0-----| --------------------|--------------------|--------------------2--| --------------------|--------------------|-----------------------| --------------------|--------------------|-----------------------| --------------------|--------------------|-----------------------| --------------------|-----------------0--|--2------------5----| --0------------3----|--------------3-----|--------------------| --------------------|--------------------|--------------------| --------------------|--------------------|--------------------| --------------------|--------------------|--------------------| --------------------|--------------------|--------------------| --------------2--5--|--7------------7--9--|--7------------5----| --------------------|---------------------|--------------------| --------------------|---------------------|--------------------| --------------------|---------------------|--------------------| --------------------|---------------------|--------------------| --------------------|---------------------|--------------------| --5----------------|------------------|------------------|------------------| -------------------|------------------|------------------|------------------| -------------------|------------------|------------------|------------------| -------------------|------------------|------------------|------------------| -------------------|------------------|------------------|------------------| -------------------|------------------|------------------|------------------| ------------------|------------------|------------------|------------------| ------------------|------------------|------------------|------------------| ------------------|------------------|------------------|------------------| ------------------|------------------|------------------|------------------| ------------------|------------------|------------------|------------------| ------------------|------------------|------------------|------------------| ------------------|------------------|------------------|------------------| ------------------|------------------|------------------|------------------| ------------------|------------------|------------------|------------------| ------------------|------------------|------------------|------------------| ------------------|------------------




Error: Incorrect password!




О сайтеАккордыХит-парадПоискУроки ФорумыИщу песню
ПрограммыСвежачок-сПодпискаСтатьи
Яндекс.Метрика