Табулатура Любэ | Ты неси меня река  (5) гитара табулатуры уроки тексты песен Любэ текст lyrics песня аккорды песни ноты нота электрогитара струна  
   А Б В Г Д Е Ж З И К Л М Н О П Р С Т У Ф Х Ч Ш Ы Э Ю Я       Разные песни
1-9 A B C D E F G H I J K L M N O P Q R S T U V W Y Z      Все исполнители

    



группа Любэ, Табулатура песни Ты неси меня река (5)

Группа: Любэ - другие аккорды (97),   о группе (1 статей),   фотографии (10)
Табулатура песни: Ты неси меня река (5)
Просмотров: 2925
Подобрал: Шома (shoma1@mail.ru)




    
Куплет:
 E||----------------|--------1-------| \\
 H||----------------|----1-------1---|  |
 G||--------------0-|--2---2---2---2-|  |
 D||----------0-2---|0---------------|  |
 A||0---0-2-3-------|----------------|  |
 E||----------------|----------------|  |
                     Dm7                |
                                        |<-повтор
 E||--------1-------|----0-------0---|  |
 H||----0-------0---|----1-------3---|  |
 G||--0---0---0---0-|--0---0---1---1-|  |
 D||----------------|----------------|  |
 A||----------------|3---------------|  |
 E||3---------------|--------0-------| /
    G7               C       E7
 E||----------------|--------1-------|--------0-------|
 H||----------------|----1-------1---|----3-------3---|
 G||--------------0-|--2---2---2---2-|--1---1---1---1-|
 D||----------0-2---|0---------------|----------------|
 A||0---0-2-3-------|----------------|----------------|
 E||----------------|----------------|0---------------|
                     Dm7              E7
Припев(бой, а в конце- перебор):
 Am____F_____C_____E7 
 Am____Am/G__F_____E7
 Am____Am/G__Dm7___E7____F 
Dm____Am____E7____Am(pimiaimi) Ты неси меня, река, за крутые берега, Где поля мои поля, где леса мои леса. Ты неси меня, река, да в родные мне места, Где живёт моя краса, голубы её глаза. Как ночка тёмная, как речка быстрая, Как одинокая луна, на небе ждёт меня она. За туманом огонёк, как же он ещё далёк. Ты мне, ветер, помоги, милой весточку шепни. Знаю ждёт меня краса, проглядела в ночь глаза. Как ночка тёмная, как речка быстрая, Как одинокая луна, на небе ждёт меня она. Примечания: 1)нота Си- это H 2)в первом куплете повтор- 4 раза, а во втором- 3 раза 3)в припеве бой играется так: а)\"дёргается\" бас б)тремя пальцами(i,m,a) \"дергаются\" три нижние струны в)затем \"бьёте\" вниз г)а затем \"бьёте\" вверх 4)в припеве Am(pimiaimi): E||--------0-------| H||----1-------1---| G||--2---2---2---2-| D||----------------| A||0---------------| E||----------------|




Error: Incorrect password!




О сайтеАккордыХит-парадПоискУроки ФорумыИщу песню
ПрограммыСвежачок-сПодпискаСтатьи
Яндекс.Метрика