“абулатура Ћюбэ | ѕозови мен€ тихо по имени  (7) гитара табулатуры уроки тексты песен Ћюбэ текст lyrics песн€ аккорды песни ноты нота электрогитара струна  
   ј Ѕ ¬ ƒ « »   Ћ ћ Ќ ќ ѕ Ў џ Ё ё я       –азные песни
1-9 A B C D E F G H I J K L M N O P Q R S T U V W Y Z      ¬се исполнители

    



группа Ћюбэ, “абулатура песни ѕозови мен€ тихо по имени (7)

√руппа: Ћюбэ - другие аккорды (97),   о группе (1 статей),   фотографии (10)
“абулатура песни: ѕозови мен€ тихо по имени (7)
ѕросмотров: 1727
ѕрислал: Dexter (dexterholland@bk.ru)




    
¬ступление:
                                                   
|-----------------8----|----------------|  
|------------------8---|----------------|  
|------0-4∕9---------9-|----7-9-7^9^7---|  
|--2-4---------10------|--0)----------7-|  
|------------10--------|----------------|  
|----------8-----------|----------------|  
 G      Em7    Am           Em
|------|------|------------|-------------|
|-0----|-3----|---1-1-1^0--|---0-0-0-----|
|----0-|----1-|---2-2-----2|---0-0---2^0-|
|---0--|---2--|------------|-------------|
|------|-2----|-0----------|-------------|
|-3----|------|------------|-0-----------|
 H7             Em           Em 
                 уплет  
|-------------|------------------|--------------|
|-------------|-------0----------|-------0------|
|---2-2-2-----|-----0------------|-----0---0----|
|---1-1---1---|---2--------------|---2-------2--|
|-2-----------|------------------|--------------|
|-------------|-0----------------|-0------------|
                           по зо   ви ме н€ти хо по
Am              H7           Em            Em
|-------------|-------------|-------------|--------------|
|-------1-----|-------0-----|-------0-----|-------0------|
|-----2---2---|-----2---2---|-----0---0---|-----0---0----|
|---2-------2-|---1-------1-|---2-------2-|---2-------2--|
|-0-----------|-2-----------|-------------|--------------|
|-------------|-------------|-0-----------|-0------------|
  и ме ни ключе вой водой напои мен€  отзо  ветс€ ли сердце без 
Am              H7           Em             Em  
|-------------|-------------|-------------|--------------|
|-------1-----|-------0-----|-------0-----|-------0------|
|-----2---2---|-----2---2---|-----0---0---|-----1---1----|
|---2-------2-|---1-------1-|---2-------2-|---2-------2--|
|-0-----------|-2-----------|-------------|--------------|
|-------------|-------------|-0-----------|-0------------|
  брежное неска занное глупое нежное снова  сумерки вход€ть без
Am             D             G      H7        Em
|-------------|-------------|----------------|---------------|
|-------1-----|-------3-----|----------------|-------0-------|
|-----2---2---|-----2---2---|-----0.---2-----|-----0---0-----|
|---2-------2-|---0-------0-|---0-----1------|---2-------2---|
|-0-----------|-0-----------|--------2-------|---------------|
|-------------|-------------|-3--------------|-0-----------0-|
  сонные снова  заст€тмнестеклаоконн  ее там киваетсирень и смо
Am               H7 
|-------------|---------------|---------------|
|-------1-----|-------0-------|-------0-------|
|-----2---2---|-----2---2-----|-----0---------|
|---2-------2-|---1-------1---|---2-----------|
|-0-----------|-2-------------|---------------|
|-------------|---------------|-0-------------|
  роди на позо  ви мен€ тиха€   родина                             
ѕрипев
                —              D              G     E7                   |
|-------------|-0-------0-----|-----0-------|--------------|             |
|----------0--|-------1---1---|---3---3-----|-0------3-----|             |
|--------0----|-----0-------0-|---------2---|-----0------1-| | |---2-4-------|---------------|-0-----------|---0------2---| | |-------------|-3-------------|-------------|--------2-----| | |-------------|---------------|-------------|-3------------| | позо ви ме н€ на закате дн € a.... | x2 | | Am Em H7 | |-------------|-------------|-----------------| | |---1-1-1^0---|---0-0-0-----|-----------------| | |---2-2-----2-|---0-0---2^0-|-------2-2-2-----| | |-------------|-------------|-------1-1---1---| | |-0-----------|-------------|-----2-----------| | |-------------|-0-----------|---------------0-| | позови мен€ грустьпечальмо€ позови мен€ | Em |-------------|-------------| |-------------|-------0-----| |-------------|-----0-------| |-------------|---2---------| |-------------|-------------| |-------------|-0-----------| позо виме н€ ..... и так далее второй куплет  ”ѕЋ≈“ Ш2 «наю сбудетс€ наше свидание, «ат€нулось с тобой расставание. —иний мес€ц за городом пр€четс€, Ќе тоскуетс€ мне и не плачетс€...  олокольчик ли, дальнее эхо ли, “олько мимо с тобой мы проехали. Ќапылили кругом, накопытили, Am H7 Em |-------------|---------------|----------------| |-------1-----|-------0-------|-------0--------| |-----2---2---|-----2---2-----|-----0---0------| |---2-------2-|---1-------1---|---2-------0----| |-0-----------|-2-------------|----------------| |-------------|---------------|-0------------0-| ƒаже толкомдороги не видели. ѕрипев.  ”ѕЋ≈“ Ш3 ѕозови мен€ тихо по имени,  лючевой водой напои мен€. «наю сбудетс€ наше свидание, Am H7 Em |-------------|---------------|-----------0----| |-------1-----|-------0-------|-------0--------| |-----2---2---|-----2---2-----|-----0---0------| |---2-------2-|---1-------1---|---2------------| |-0-----------|-2-------------|----------------| |-------------|---------------|-0--------------| я вернусь, € сдержу обещание...








ќ сайте Х јккорды Х ’ит-парад Х ѕоиск Х ”роки Х ‘орумы Х »щу песню
ѕрограммы Х —вежачок-с Х ѕодписка Х —татьи
яндекс.ћетрика