Аккорды Выход | Пустота гитара табулатуры уроки тексты песен Выход текст lyrics песня аккорды песни ноты нота электрогитара струна  
   А Б В Г Д Е Ж З И К Л М Н О П Р С Т У Ф Х Ч Ш Ы Э Ю Я       Разные песни
1-9 A B C D E F G H I J K L M N O P Q R S T U V W Y Z      Все исполнители

    



группа Выход, Аккорды песни Пустота

Группа: Выход - другие аккорды (30),   о группе (8 статей),   диски (1),   фотографии (11)
Аккорды песни: Пустота
Просмотров: 1165
Подобрал: Брат Исая (akter@pochta.ru)




    
P1.                                           P1.
E|----7---------7-----|-----5------------------|--|----5-----------------|
H|---8--8--8---8--8---|----6--6-------6---6--6-|--|---6--6-----6---6-----|
G|--7----7----7-------|---7----7-----7---7-----|--|--7----7---7---7------|
D|0----------9-----9-7|-0--------5-7----0---7--|--|0-------5-7---0---7-5-|
  X2
E|----1-----------------------1------0>1----|
H|---3--3-3----3----3--------3--3--3----3-3-|
G|--3----3----3----3--------2----2-------2--|
D|0---------3----2----0>2>0----------0------|
G                             Dm
Серый вечер пуст, как пусто бутылки дно;
Как без листьев куст, что веткой стучит в окно.
B           Dm           B           Dm
Пустота там и везде, в пустоте кончился день.
Пусто на столе, лишь пепельница полна;
Пусто на душе и кончился баттл вина.
Пустота там и везде,
В пустоте кончился день. Am7(V) D#(VI) Утром, едва лишь открыв глаза, Am7 D# Утром я вряд ли смогу сказать Gm7 Fm7 Gm7 Как тебя звать, и как ты сюда попала, в эту кровать. Fm7 Gm7 Gm6 Но так ли все это важно, хочется спать. Солнце лезет в глаза рукой, Аллу заводят за стеной; Где ты, покой? Звонит телефон над ухом - Кто там такой? Жужжит назойливо муха надо мной и тобой.

www.vyhod.ru



Error: Incorrect password!




О сайтеАккордыХит-парадПоискУроки ФорумыИщу песню
ПрограммыСвежачок-сПодпискаСтатьи
Яндекс.Метрика