Табулатура Whitney Houston | Go On гитара табулатуры уроки тексты песен Whitney Houston текст lyrics песня аккорды песни ноты нота электрогитара струна  
   А Б В Г Д Е Ж З И К Л М Н О П Р С Т У Ф Х Ч Ш Ы Э Ю Я       Разные песни
1-9 A B C D E F G H I J K L M N O P Q R S T U V W Y Z      Все исполнители

    



группа Whitney Houston, Табулатура песни Go On

Группа: Whitney Houston - другие аккорды (1),   об исполнителе (4 статей),   диски (1),   фотографии (51)
Табулатура песни: Go On
Просмотров: 2110
Подобрал: frol (mike.frol@mail.ru)




    

вступление: 
 || || || |-0-| |-2--2--4--4-| |-5--4--0--2--7--9-| |-7--5--4--4--0-| |---
 || || || |---| |------------| |------------------| |---------------| |-2-
 || || || |---| |------------| |------------------| |---------------| |---
 || || || |---| |------------| |------------------| |---------------| |---
 || || || |---| |------------| |------------------| |---------------| |---
 || || || |---| |------------| |------------------| |---------------| |---
| |-0--2--4--4--5--7-| |-5--4--0--2--7--4--7-| |-7--7-| |----4--2-| || || ||  
| |------------------| |---------------------| |------| |-7-------| || || ||  
| |------------------| |---------------------| |------| |---------| || || ||  
| |------------------| |---------------------| |------| |---------| || || ||  
| |------------------| |---------------------| |------| |---------| || || ||  
| |------------------| |---------------------| |------| |---------| || || ||  
  || || || || || || || |-2-| |-4--5--4--2-| |-0-| || || || || || || || || ||  
  || || || || || || || |---| |------------| |---| || || || || || || || || ||  
  || || || || || || || |---| |------------| |---| || || || || || || || || ||  
  || || || || || || || |---| |------------| |---| || || || || || || || || ||  
  || || || || || || || |---| |------------| |---| || || || || || || || || ||  
  || || || || || || || |---| |------------| |---| || || || || || || || || ||  
  || || || || || || || || || || |-2--4--4--5--7-| |-5--4--0--2--7--4--7-| |-7-
  || || || || || || || || || || |---------------| |---------------------| |---
  || || || || || || || || || || |---------------| |---------------------| |---
  || || || || || || || || || || |---------------| |---------------------| |---
  || || || || || || || || || || |---------------| |---------------------| |---
  || || || || || || || || || || |---------------| |---------------------| |---
-7-| |----4--2-| || || || || || || || || || || || || || || || || || || || ||  
---| |-7-------| || || || || || || || || || || || || || || || || || || || ||  
---| |---------| || || || || || || || || || || || || || || || || || || || ||  
---| |---------| || || || || || || || || || || || || || || || || || || || ||  
---| |---------| || || || || || || || || || || || || || || || || || || || ||  
---| |---------| || || || || || || || || || || || || || || || || || || || ||  
  || || || || || || || || || || || || |-2--4--4-| |-5--4--0--2--7--9-| |-7--5-
  || || || || || || || || || || || || |---------| |------------------| |------
  || || || || || || || || || || || || |---------| |------------------| |------
  || || || || || || || || || || || || |---------| |------------------| |------
  || || || || || || || || || || || || |---------| |------------------| |------
  || || || || || || || || || || || || |---------| |------------------| |------
-4--4--0-| |---| |-0--2--4--4--5--7-| |-5--4--0--2--7--4--7-| |-7--7-| |----4---|
---------| |-2-| |------------------| |---------------------| |------| |-7----2-|
---------| |---| |------------------| |---------------------| |------| |--------|
---------| |---| |------------------| |---------------------| |------| |--------|
---------| |---| |------------------| |---------------------| |------| |--------|
---------| |---| |------------------| |---------------------| |------| |--------|
куплет:

Продолжаем грести бабос на ботах в Telegram.
Только в этот раз есть вариант автоматизировать это дело, привлекая рефералов. Вы можете заработать если »

|| || || || || || || || || || || || |------------| |---------| |--------- || || || || || || || || || || || || |------------| |---------| |--------- || || || || || || || || || || || || |------------| |---------| |--------- || || || || || || || || || || || || |-2--2--2--2-| |-1--2--1-| |-1--2--4- || || || || || || || || || || || || |------------| |---------| |--------- || || || || || || || || || || || || |------------| |---------| |--------- | |------------| |------------| |---------| |---| || |------------| |--------- | |------------| |------------| |---------| |---| || |------------| |--------- | |-1--2--1----| |------------| |---------| |---| || |------------| |--------- | |----------4-| |-2--2--2--2-| |-1--2--2-| |---| || |-2--2--2--2-| |-1--2--2- | |------------| |------------| |---------| |-2-| || |------------| |--------- | |------------| |------------| |---------| |---| || |------------| |--------- | |---------| |------------| |------------| |---------| |---| || |---| |---| | |---------| |------------| |------------| |---------| |---| || |---| |---| | |---------| |-1--2--1----| |------------| |---------| |---| || |---| |---| | |-1--2--4-| |----------4-| |-2--2--2--2-| |-1--2--2-| |---| || |-2-| |-4-| | |---------| |------------| |------------| |---------| |-2-| || |---| |---| | |---------| |------------| |------------| |---------| |---| || |---| |---| |---------| |---------| |------| |------------| |------------| || |---| |--- |-0-------| |---------| |------| |------------| |------------| || |---| |--- |----2--1-| |----1--2-| |-1----| |------------| |------------| || |---| |--- |---------| |-4-------| |----4-| |-2--1--2----| |----1-------| || |-2-| |-4- |---------| |---------| |------| |----------2-| |-4-----4--2-| || |---| |--- |---------| |---------| |------| |------------| |------------| || |---| |--- ---| |---------| |---------| |---------| |---------| |---------| |------------ ---| |-0-------| |---------| |---------| |---------| |---------| |------------ ---| |----2--1-| |----1--2-| |-1-------| |---------| |---------| |-1--2--1---- ---| |---------| |-4-------| |----4--2-| |-1--2--1-| |-1--2--4-| |----------4- -2-| |---------| |---------| |---------| |---------| |---------| |------------ ---| |---------| |---------| |---------| |---------| |---------| |------------ | |---------| || || || |------------| |---------| |---------| |------------| | |---------| || || || |------------| |---------| |---------| |------------| | |---------| || || || |------------| |---------| |---------| |-1--2--1----| | |-2--1----| || || || |-2--2--2--2-| |-1--2--1-| |-1--2--4-| |----------4-| | |-------4-| || || || |------------| |---------| |---------| |------------| | |---------| || || || |------------| |---------| |---------| |------------| |------------| |---------| |---| || |------------| |---------| |---------| |------------| |---------| |---| || |------------| |---------| |---------| |------------| |---------| |---| || |------------| |---------| |---------| |-2--2--2--2-| |-1--2--2-| |---| || |-2--2--2--2-| |-1--2--2-| |-1--2--4-| |------------| |---------| |-2-| || |------------| |---------| |---------| |------------| |---------| |---| || |------------| |---------| |---------|








О сайтеАккордыХит-парадПоискУроки ФорумыИщу песню
ПрограммыСвежачок-сПодпискаСтатьи
Яндекс.Метрика