Табулатура Дельфин | Сахар гитара табулатуры уроки тексты песен Дельфин текст lyrics песня аккорды песни ноты нота электрогитара струна  
   А Б В Г Д Е Ж З И К Л М Н О П Р С Т У Ф Х Ч Ш Ы Э Ю Я       Разные песни
1-9 A B C D E F G H I J K L M N O P Q R S T U V W Y Z      Все исполнители

    



группа Дельфин, Табулатура песни Сахар

Группа: Дельфин - другие аккорды (48)
Табулатура песни: Сахар
Просмотров: 1239
Подобрал: -=DDDragon=- (k0rn@mail.kz)




    
Припев в той же тональности, что и у Дельфина.
-
E||--7-6--6---6-6---4---4--4-4-5--5---5-5--5-5--5-5------------|
B||--7-6--6---6-6---4---4--4-4-7--7---7-7--7-7--7-7------------|
G||--9-8--8---8-8---6---6--6-6-7--7---7-7--7-7--7-7------------|
D||--9-8--8---8-8---6---6--6-6-5--5---5-5--5-5--5-5------------|
A||--7-6--6---6-6---4---4--4-4-5--5---5-5--5-5--5-5------------|
E||--7-6--6---6-6---4---4--4-4-5--5---5-5--5-5--5-5------------|

E||--7-7-7-7-7-7-7-7-7-6--6---6-6--4--4--4-4-2-2-0--0--2-2-2-2--0-0-----||
B||--7-7-7-7-7-7-7-7-7-6--6---6-6--4--4--4-4-2-2-0--0--2-2-2-2--0-0-----||
G||--9-9-9-9-9-9-9-9-9-8--8---8-8--6--6--6-6-4-4-2--2--4-4-4-4--2-2-----||
D||--9-9-9-9-9-9-9-9-9-8--8---8-8--6--6--6-6-4-4-2--2--4-4-4-4--2-2-----||
A||--7-7-7-7-7-7-7-7-7-6--6---6-6--4--4--4-4-x-x-x--x--x-x-x-x--x-x-----||
E||--7-7-7-7-7-7-7-7-7-6--6---6-6--4--4--4-4-x-x-x--x--x-x-x-x--x-x-----||

Ритм в припеве бешеный, поэтому его послушать надо.
    




Error: Incorrect password!




О сайтеАккордыХит-парадПоискУроки ФорумыИщу песню
ПрограммыСвежачок-сПодпискаСтатьи
Яндекс.Метрика