Аккорды Черный Обелиск | Цезарь гитара табулатуры уроки тексты песен Черный Обелиск текст lyrics песня аккорды песни ноты нота электрогитара струна  
   А Б В Г Д Е Ж З И К Л М Н О П Р С Т У Ф Х Ч Ш Ы Э Ю Я       Разные песни
1-9 A B C D E F G H I J K L M N O P Q R S T U V W Y Z      Все исполнители

    



группа Черный Обелиск, Аккорды песни Цезарь

Группа: Черный Обелиск - другие аккорды (19),   о группе (11 статей),   диски (8),   фотографии (12)
Аккорды песни: Цезарь
Просмотров: 2568
Прислал: Locksmith (slesarev_oleg@chat.ru)




    

  Am

-----0-----0-----0-----0-----------0-----0-----0-----0------

-----1-----1-----1-----1-----------1-----1-----1-----1------

-----2-----2-----2-----2-----------2-----2-----2-----2------

------------------------------------------------------------

--0-----2-----3-----2-----------0-----2-----3-----4---------

------------------------------------------------------------



  Dm

-----1-----1-----1-----1-----------1-----1-----1-----1------

-----3-----3-----3-----3-----------3-----3-----3-----3------

-----2-----2-----2-----2-----------2-----2-----2-----2------

--0-----2-----3-----2-----------0-----2-----3-----2---------

------------------------------------------------------------

------------------------------------------------------------



   E

---0-----

---0-----

---1-----

---2-----

---2-----

---0-----

 

Am 

Аве Цезарь, друг сердешный

Ну заходи, давно заждались.

Dm

Нет не поздно, да конечно.

                  E

Не развязывай сандалий.



Брось ты эту табуретку.

Эй, принесите гостю кресло.

Он у нас бывает редко,

Так пускай понежит чресло.



Пей, замерз ты как собака.

Угощайся, а-a-a не курим

Эй вы там, кончайте плакать

Мы потом добалагурим.

Тут у нас такие гости, Украшение компаний. Что не спится на погосте, Или плохо закопали. Или совесть беспокоит, Иль соседи кровопийцы, Или что-нибудь такое, Что забыли летописцы Или может не забыли, Да писать про это тошно. Знать за это и убили, Император не святоша. Без убийства он не может Удержаться на маршруте. А в тоске на смертном ложе Ты мечтал о Марке Брутте. Да мечтал а вышел кукишь Эпитафией на прах мой. Милосердия не купишь, Не измеришь тетрадрахмой Милосердие для слабых, Сильным яду из флакона Мне бы слабость, я тогда бы Не стоял у Рубикона. Так почему же, боже правый, Ты играл со мною в прятки Почему не дал отравы. Тише, Цезарь, все в порядке Ты у нас душа святая, Ты борец не за награды Что пора уже - светает Так заходи, мы будем рады......




Error: Incorrect password!




О сайтеАккордыХит-парадПоискУроки ФорумыИщу песню
ПрограммыСвежачок-сПодпискаСтатьи
Яндекс.Метрика