Табулатура Земфира | Искала (соло) гитара табулатуры уроки тексты песен Земфира текст lyrics песня аккорды песни ноты нота электрогитара струна  
   А Б В Г Д Е Ж З И К Л М Н О П Р С Т У Ф Х Ч Ш Ы Э Ю Я       Разные песни
1-9 A B C D E F G H I J K L M N O P Q R S T U V W Y Z      Все исполнители

    



группа Земфира, Табулатура песни Искала (соло)

Группа: Земфира - другие аккорды (70),   о группе (1 статей),   диски (6)
Табулатура песни: Искала (соло)
Просмотров: 4338
Подобрал: Nickson (NIckson_84@mail.ru)




    


E ------|------|------|------|------|------|------|------|------------
B ------|------|------|------|------|------|------|------|-3-3-1-3-3-3
G ------|------|------|------|------|------|------|------|------------
D ------|------|------|------|------|------|------|------|------------
A ------|------|------|------|------|------|------|------|------------
E ------|------|------|------|------|------|------|------|------------

E -|---1-0-1-0-|-------------|---1-0-1-0-|-5-----------|---1-0-1-|----
B -|-3---------|-3-3-1-3-3-3-|-3---------|---3-1-3-3-3-|-3-------|-3-3
G -|-----------|-------------|-----------|-------------|---------|----
D -|-----------|-------------|-----------|-------------|---------|----
A -|-----------|-------------|-----------|-------------|---------|----
E -|-----------|-------------|-----------|-------------|---------|----

E -------|-5-5-5-3-|-5-5-8-5-3-5-|-5-8-5-3-5-|-3-1-3-1-0-1-|-0-1-3-1-0
B -1-3-3-|---------|-------------|-----------|-------------|----------
G -------|---------|-------------|-----------|-------------|----------
D -------|---------|-------------|-----------|-------------|----------
A -------|---------|-------------|-----------|-------------|----------
E -------|---------|-------------|-----------|-------------|----------

E -0-|-------------|---1-0-1-0-|-------------|---1-0-1-0-|-5----------
B ---|-3-3-1-3-3-3-|-3---------|-3-3-1-3-3-3-|-3---------|---3-1-3-3-3
G ---|-------------|-----------|-------------|-----------|------------
D ---|-------------|-----------|-------------|-----------|------------
A ---|-------------|-----------|-------------|-----------|------------
E ---|-------------|-----------|-------------|-----------|------------

E -|-----1-0-1-0-|-------------|-5-5-5-5-3-3-|-5-5-8-5-3-5-|-5-8-5-3-5
B -|-3-3---------|-3-3-1-3-3-3-|-------------|-------------|----------
G -|-------------|-------------|-------------|-------------|----------
D -|-------------|-------------|-------------|-------------|----------
A -|-------------|-------------|-------------|-------------|----------
E -|-------------|-------------|-------------|-------------|----------

E -|-3-1-3-1-0-1-|-0-1-3-1-0-0-|------|-0-1-0-1-0---|------|-0-1-0-1-5
B -|-------------|-------------|------|-----------3-|------|----------
G -|-------------|-------------|------|-------------|------|----------
D -|-------------|-------------|------|-------------|------|----------
A -|-------------|-------------|------|-------------|------|----------
E -|-------------|-------------|------|-------------|------|----------

Продолжаем грести бабос на ботах в Telegram.
Только в этот раз есть вариант автоматизировать это дело, привлекая рефералов. Вы можете заработать если »

E -|-5-|-0-1-0-1-0---|------|------|------|------|------|------|------ B -|---|-----------3-|------|------|------|------|------|------|------ G -|---|-------------|------|------|------|------|------|------|------ D -|---|-------------|------|------|------|------|------|------|------ A -|---|-------------|------|------|------|------|------|------|------ E -|---|-------------|------|------|------|------|------|------|------ E |------|------|------|-5-5-8-5-3-5-|-5-8-5-3-5-|-3-1-3-1-0-1-|-0-1-3 B |------|------|------|-------------|-----------|-------------|------ G |------|------|------|-------------|-----------|-------------|------ D |------|------|------|-------------|-----------|-------------|------ A |------|------|------|-------------|-----------|-------------|------ E |------|------|------|-------------|-----------|-------------|------ E -1-0-1-|-5-5-8-5-3-5-|-5-8-5-3-5-|-3-1-3-1-0-1-|-0-1-3-1-0-1-|------ B -------|-------------|-----------|-------------|-------------|-3-3-1 G -------|-------------|-----------|-------------|-------------|------ D -------|-------------|-----------|-------------|-------------|------ A -------|-------------|-----------|-------------|-------------|------ E -------|-------------|-----------|-------------|-------------|------ E -------|---1-0-1-0-|-------------|---1-0-1-0-|-5-----------|---1-0-1 B -3-3-3-|-3---------|-3-3-1-3-3-3-|-3---------|---3-1-3-3-3-|-3------ G -------|-----------|-------------|-----------|-------------|-------- D -------|-----------|-------------|-----------|-------------|-------- A -------|-----------|-------------|-----------|-------------|-------- E -------|-----------|-------------|-----------|-------------|-------- E -0-|-------------|-0-1-0-1-0-|-1-0-| B ---|-3-3-1-3-3-3-|-----------|-----| G ---|-------------|-----------|-----| D ---|-------------|-----------|-----| A ---|-------------|-----------|-----| E ---|-------------|-----------|-----| Пожалуй это одно из лучших подобранных соляков, но не последний. Никита кожевников. P.S.Не забывайте придерживаться ритма как в песне, он места меняется.








О сайтеАккордыХит-парадПоискУроки ФорумыИщу песню
ПрограммыСвежачок-сПодпискаСтатьи
Яндекс.Метрика