Аккорды Jobim Antonio Carlos | Wave гитара табулатуры уроки тексты песен Jobim Antonio Carlos текст lyrics песня аккорды песни ноты нота электрогитара струна  
   А Б В Г Д Е Ж З И К Л М Н О П Р С Т У Ф Х Ч Ш Ы Э Ю Я       Разные песни
1-9 A B C D E F G H I J K L M N O P Q R S T U V W Y Z      Все исполнители

    



группа Jobim Antonio Carlos, Аккорды песни Wave

Группа: Jobim Antonio Carlos - другие аккорды (5)
Аккорды песни: Wave
Просмотров: 1155




    


WAVE (Vou Te Contar)    - Antonio Carlos Jobim

Chord Forms:

  DM7 Bdim Am7 D7b9 GM7 Gm6 F#13 F#75+ B9 B7b9 E9 Bb7 A7 Dm7 G7 A75+
e---------------------------------------------------------5----------
B--5---5----5----4---3---3---4----2----2---0---7---6--5---6--6---6---
G--6---6----5----5---4---3---3----3----2---2---7---7--6---5--4---6---
D--7---5----5----4---4---2---2----2----1---1---6---6--5------3---5---
A--5-----------------------------------2---2-------8--7---5----------
E------6----5----5---3---3---2----2------------7---6--5------3---5---


  Gm7 C9 FM7 Fm7 Bb9 A7b9(3) A7b9(6) A7b9(9)
e--------------------------------------------
B--3--3---1---1---1-----2-------5-------8----
G--3--3---2---1---1-----3-------6-------9----
D--3--2---2---1---0-----2-------5-------8----
A-----3-----------1--------------------------
E--3------1---1---------3-------6-------9----


Intro:

   sl    sl     sl    A75+      (sl=slide)
e-1--3--5--7--10--12--------
B-2--3--6--8--10--12---6----
G-2--4--5--7--10--12---6----
D-0--0--0--0---0---0---5----
A---------------------------
E----------------------5----

       DM7     Bdim                  Am7  D7b9
Vou te contar, os olhos ja nao podem ver
           GM7      Gm6           F#13 F#75+ B9 B7b9
Coisas que so o coracao pode entender

Продолжаем грести бабос на ботах в Telegram.
Только в этот раз есть вариант автоматизировать это дело, привлекая рефералов. Вы можете заработать если »

E9 Fundamental e' mesmo o amor Bb7 A7 Dm7 A75+ E' impossivel ser feliz sozinho DM7 Bdim Am7 D7b9 O resto e' mar, e' tudo que eu nem sei contar GM7 Gm6 F#13 F#75+ B9 B7b9 Sao coisas lindas que eu tenho pra te dar E9 Vem de mansinho a brisa e me diz Bb7 A7 Dm7 G7 E' impossivel ser feliz sozinho Gm7 C9 FM7 Da primeira vez e' a cidade Fm7 Bb9 Gm7 A7b9(3) A7b9(6) A7b9(9) Da segunda, o cais, a eternidade DM7 Bdim Am7 D7b9 Agora eu ja sei da onda que se ergueu no mar GM7 Gm6 F#13 F#75+ B9 B7b9 E das estrelas que esquecemos de contar E9 O amor se deixa surpreender Bb7 A7 Dm7 A75+ Enquanto a noite vem nos envolver (repeat from start)








О сайтеАккордыХит-парадПоискУроки ФорумыИщу песню
ПрограммыСвежачок-сПодпискаСтатьи
Яндекс.Метрика