Аккорды ДДТ | я еду к тебе гитара табулатуры уроки тексты песен ДДТ текст lyrics песня аккорды песни ноты нота электрогитара струна  
   А Б В Г Д Е Ж З И К Л М Н О П Р С Т У Ф Х Ч Ш Ы Э Ю Я       Разные песни
1-9 A B C D E F G H I J K L M N O P Q R S T U V W Y Z      Все исполнители in english

    



группа ДДТ, Аккорды песни я еду к тебе

Продолжаем грести бабос на ботах в Telegram.
Только в этот раз есть вариант автоматизировать это дело, привлекая рефералов. Вы можете заработать если »

Группа: ДДТ - другие аккорды (189),   о группе (9 статей),   диски (7),   фотографии (16)
Аккорды песни: я еду к тебе
Просмотров: 3791




    

ДДТ - Я еду к тебе

Подбор  : Vladimir Mikhailov  ( 2:5011/78.600 )


вступление и 1-й куплет:
1|-------0--------------------------------------------|
2|---------1----------3----------1-----------0^1^0----| 0^1^0 - вторую струну
3|-----2-----2------2---2------2---2-------0-------0--|на 1-м ладу не дергать!
4|----------------3----------3------------------------|
5|---0------------------------------------------------|
6|---------------------------------------3------------|

1|-------0----------------------------------------------0-|
2|---------1----------3----------1-----------0-1^0------3-|
3|-----2-----2------2---2------2---2-------0-------0----4-|
4|----------------3----------3--------------------------5-|
5|---0----------------------------------------------------|
6|---------------------------------------3----------------|
                                                        . в конце проигрыша

Я еду к тебе
Это странное место
Туман на болоте
Без цвета и дна
Я твой вечных жених,
Золотая невеста
чижут мысли, как мухи,
Стекла окна

Зима на спине
Я не стар и не молод
Hочь похожа на лифт
в котором умер позт
Я по уши сыт,
Да разбудил меня голод
Руки чувствуют пульс
Я зеваю на свет

Припев:
1|-------0-----------------------0----------------0-------|
2|---------1----------3------------1------------0---0-----|
3|-----2-----2------2---2------0-----0-------1^2------1---|
4|--------------------------------------------------------|
5|--0-----------------------------------------------------|
6|----------------2----------3-------------0--------------|

Мама, разбуди меня вечером
Мама, чтоб я ночь не проспал
Мама, я уйду как намечено
Мама, мама как я устал

Продолжаем грести бабос на ботах в Telegram.
Только в этот раз есть вариант автоматизировать это дело, привлекая рефералов. Вы можете заработать если »

Соло: 1|--------0---------0----------------0-----|--------0---------7-0------------ 2|------0---6---------6------------3---3---|------0---6-----------6---------- 3|----5-------5---5-----5------4^5-------4-|----5-------5---5-------5-------- 4|--7-----------7---------7--5-------------|--7-----------7------------------ 5|-----------------------------------------|--------------------------------- 6|-----------------------------------------|--------------------------------- --------5-----|--------0---------0----------------0-----|--------0----------- ------3---3---|------0---6---------6------------3---3---|------0---6--------- ----4-------4-|----5-------5---5-----5------4^5-------4-|----5-------5---5--- --5-----------|--7-----------7---------7--5-------------|--7-----------7----- --------------|-----------------------------------------|-------------------- --------------|-----------------------------------------|-------------------- --0----------0---| ----6--------3---| - в общем-то похоже ------5------4---| --------7----5---| -----------------| -----------------| 2-й куплет играется в две гитары: одна продолжает соло, другая - как 1-й куплет или вроде зтого Гроза по глазам Hапротив морщинами Скребет по стеклу Седая рука Мимо павших идей Проплывают причинами в тумане чуть видимо ветви века. Растет за окном Последняя станция Здесь отпевают верхний зтаж Здравствуй, любовь, Получи информацию Да не промахнись И сотри макияж Припев. Дальше боем: Am,D*(200230),C,E Свобода (~4 раза)

поиск лекарств
список лекарств






О сайтеАккордыХит-парадПоискУроки ФорумыИщу песню
ПрограммыСвежачок-сПодпискаСтатьи
Яндекс.Метрика