Табулатура Black Crowes | Hardman гитара табулатуры уроки тексты песен Black Crowes текст lyrics песня аккорды песни ноты нота электрогитара струна  
   А Б В Г Д Е Ж З И К Л М Н О П Р С Т У Ф Х Ч Ш Ы Э Ю Я       Разные песни
1-9 A B C D E F G H I J K L M N O P Q R S T U V W Y Z      Все исполнители in english

    



группа Black Crowes, Табулатура песни Hardman

Продолжаем грести бабос на ботах в Telegram.
Только в этот раз есть вариант автоматизировать это дело, привлекая рефералов. Вы можете заработать если »

Группа: Black Crowes - другие аккорды (14)
Табулатура песни: Hardman
Просмотров: 903




    
#----------------------------------PLEASE NOTE---------------------------------#
#This file is the author's own work and represents their interpretation of the #
#song. You may only use this file for private study, scholarship, or research. #
#------------------------------------------------------------------------------##
                                                                               
E-|----------------------------------|----------------------------------------|
B-|----------------------------------|----------------------------------------|
G-|------------------7b9-9b7-5-7-7-5-|-repeat-this-3-times-then-do------------|
D-|--5h7-7-5-5h7-5h7-0---0-0-0-0-0-0-|----------------------------------------|
A-|--0---0-0-0---0-------------------|----------------------------------------|
E-|----------------------------------|----------------------------------------|
                                                                               
                                                                               
E-|-------------------------|-------------------------------------------------|
B-|-------------------------|-------------------------------------------------|
G-|-9-9-9-9-11b12p9-7-9-7-5-|-now-go-back-to-the-first-riff-------------------|
D-|-------------------------|-------------------------------------------------|
A-|-------------------------|-------------------------------------------------|
E-|-------------------------|-------------------------------------------------|
                                                                               
                                                                               
E-|---------------------------------|-----------------------------------------|
B-|---------------------------------|-----------------------------------------|
G-|-----------------7-7-7-7-7-7-7-7-|-repeat-this-3-times---------------------|
D-|-7-7-7-7-7-7-7-7-7-7-7-7-7-7-7-7-|-----------------------------------------|
A-|-7-7-7-7-7-7-7-7-5-5-5-5-5-5-5-5-|-----------------------------------------|
E-|-5-5-5-5-5-5-5-5-----------------|-----------------------------------------|
                                                                               

Продолжаем грести бабос на ботах в Telegram.
Только в этот раз есть вариант автоматизировать это дело, привлекая рефералов. Вы можете заработать если »

E-|---------------------------------------------------------------------------| B-|---------------------------------------------------------------------------| G-|-7-7-7-7-7-7-7-7-----------------------------------------------------------| D-|-7-7-7-7-7-7-7-7-9-9-9-9-9-9-9-9-7-----------------------------------------| A-|-5-5-5-5-5-5-5-5-9-9-9-9-9-9-9-9-7-(let-ring)------------------------------| E-|-----------------7-7-7-7-7-7-7-7-5-----------------------------------------| E-|---------------------------------------------------------------------------| B-|---------------------------------------------------------------------------| G-|---------------------------------------------------------------------------| D-|---------------------------------------------------------------------------| A-|---------------------------------------------------------------------------| E-|---------------------------------------------------------------------------| E-|---------------------------------------------------------------------------| B-|---------------------------------------------------------------------------| G-|---------------------------------------------------------------------------|

лекарство в аптеке
список лекарств






О сайтеАккордыХит-парадПоискУроки ФорумыИщу песню
ПрограммыСвежачок-сПодпискаСтатьи
Яндекс.Метрика