Табулатура Red Hot Chili Peppers | I Could Have Lied гитара табулатуры уроки тексты песен Red Hot Chili Peppers текст lyrics песня аккорды песни ноты нота электрогитара струна  
   А Б В Г Д Е Ж З И К Л М Н О П Р С Т У Ф Х Ч Ш Ы Э Ю Я       Разные песни
1-9 A B C D E F G H I J K L M N O P Q R S T U V W Y Z      Все исполнители in english

    



группа Red Hot Chili Peppers, Табулатура песни I Could Have Lied

Продолжаем грести бабос на ботах в Telegram.
Только в этот раз есть вариант автоматизировать это дело, привлекая рефералов. Вы можете заработать если »

Группа: Red Hot Chili Peppers - другие аккорды (395),   о группе (3 статей),   диски (15),   фотографии (113)
Табулатура песни: I Could Have Lied
Просмотров: 1214
Подобрал: Back Door Man




    
I have used the standard tab-symboles...
Main riff:
E|------------------------------------------------------------|
B|------------------------------------------------------------|
G|------------------------------------------------------------|
D|------0-4-------0-4-------0-4-------0-4---/7--5---4---------|
A|--0h2---------2---------2---------2------------------5------|
E|---------------------------------------------------------3--|
Variation:
Played only 2 times in the first minute in the song.
You can figure it out your self.
E|------------------------------------------------------------|
B|----------------------------2h3p2---------------------------|
G|------------------------------------------------------------|
D|------0-4-----------0-4----------------0-/7--5---4----------|
A|--0h2-------------2----------------------------------5------|
E|---------------------------------------------------------3--|
Riff 2:
      D     C     G     F
E|----5-----8-----3-----1-----|
B|----7-----8-----3-----1-----|
G|----7-----9-----4-----2-----|
D|----7-----10----5-----3-----|
A|----5-----10----5-----3-----|
E|----5-----8-----3-----1-----|
Solo 1:
Riff 2 in background(4x)
E|------------------------------------------------------------|
B|---------------------------------------------------7-7-7-7--|
G|----------------------------------------------6/7-----------|
D|---------------7--9b11-(hold)-11r9---------9----------------|
A|-------5--7/9-----------------------10-10-------------------|
E|---/7-------------------------------------------------------|
E|------------------------------------------------------------|
B|----7---7--8b10--8-7---------------------7--------7---------|
G|--9---9---------------7-7--9-7-9-7--9/11-----9/11-----9/11--|
D|------------------------------------------------------------|
A|------------------------------------------------------------|
E|------------------------------------------------------------|
E|---7-----------7--------------------------------------------|
B|-7---7--10/12------10--7---7h10p7------7--------------------|
G|------------------------------------9-----7h9p7-------------|
D|-------------------------------------------------9-7-9-9-9--|
A|------------------------------------------------------------|
E|------------------------------------------------------------|
E|------------------------------------------------------------|
B|-8-7--7h8p7--------------7----------------------------------|
G|-------------7---------7---7--------------------------------|
D|----------------9--9----------9---7h9--9--7--9------------9-|
A|-----------------------------------------------------7------|
E|------------------------------------------------------------|
Main riff in background(2x)
E|-----------------------------------------17--15--14---------|
B|--------------------------15--17b19-----------------15------|
G|------------------14--16-------------------------------147-|
D|-------12--14/16--------------------------------------------|
A|-7/14-------------------------------------------------------|
E|------------------------------------------------------------|
E|------------------------------------------------------------|
B|-----------7------------------------------------------------|
G|------7h9--9b11--9p7----------------------------------------|

Продолжаем грести бабос на ботах в Telegram.
Только в этот раз есть вариант автоматизировать это дело, привлекая рефералов. Вы можете заработать если »

D|-7h9------------------7h9----95-4h5p5-2-------------------| A|------------------------------------------------------------| E|------------------------------------------------------------| Solo 2: Riff 2 in background softly throughout the song. And as a finish: Em. E|------------------------------------------------------------| B|---15b17----------------------------------------------------| G|-----------14b16--12--14--12--14b16r14b17-----14------12----| D|------------------------------------------------------------| A|------------------------------------------------------------| E|------------------------------------------------------------| E|------------------------------------------------------------| B|------------------------------------------------------------| G|--12--14--12--14--12----------------------------------------| D|----------------------14-14-----14--12--14--12--14---12h14--| A|------------------------------------------------------------| E|------------------------------------------------------------| E|------------------------------------------------------------| B|---------------------------------------15--12--15--12-------| G|--12--14b16--12----------14b16^--14-------------------------| D|-----------------12--14-------------------------------------| A|------------------------------------------------------------| E|------------------------------------------------------------| E|------------------------------------------------------------| B|--12--------------------------------------------------------| G|-----14--12--14b16--14b16--14-------12--14--12--12b14-------| D|------------------------------------------------------------| A|------------------------------------------------------------| E|------------------------------------------------------------| E|------------------------------------------------------------| B|-----------------------------------------------3------------| G|--11--12--11--11b12------7-------------0--2b4-hold-4r2------| D|----------------------9-----9-9-----2-----------------------| A|------------------------------------------------------------| E|------------------------------------------------------------| E|------------------------------------------------------------| B|-------------------------------------------------------12---| G|--0--2--0--2--0----------------------------------------12---| D|-----------------2b4r2---2---2slide14--14--14----14---| A|------------------------------------------------------------| E|------------------------------------------------------------| Play like this: ?Intro: Main riff. 2x ?Verse: Main riff. 4x (variation in first) ?Chorus 1: Riff 2. 1x ?Verse: Main riff. 4x ?Chorus 1: Riff 2. 1x ?Chorus 2: Riff 2. 2x ?Solo 1 ?Verse: Main riff. 4x ?Chorus 2: Riff 2. 2x ?Chorus 2: Riff 2. 2x (Solo 2 starts in this chorus...) ?Solo 2 ?Applause.... if it sounded good...

поиск лекарств
список лекарств






О сайтеАккордыХит-парадПоискУроки ФорумыИщу песню
ПрограммыСвежачок-сПодпискаСтатьи
Яндекс.Метрика