Табулатура Red Hot Chili Peppers | Factory Of Faith гитара табулатуры уроки тексты песен Red Hot Chili Peppers текст lyrics песня аккорды песни ноты нота электрогитара струна  
   А Б В Г Д Е Ж З И К Л М Н О П Р С Т У Ф Х Ч Ш Ы Э Ю Я       Разные песни
1-9 A B C D E F G H I J K L M N O P Q R S T U V W Y Z      Все исполнители in english

    



группа Red Hot Chili Peppers, Табулатура песни Factory Of Faith

Группа: Red Hot Chili Peppers - другие аккорды (395),   о группе (3 статей),   диски (15),   фотографии (113)
Табулатура песни: Factory Of Faith
Просмотров: 1254
Прислал: Back Door Man




    
My first tab. I have written every section that Josh plays, but It's not the correct 
rhythm, so listen to the song and work out timing that's appropriate.
Verse 1. (Phaser)
e|--------------------------------------------------------20-20-20-20-20-20-20-|
B|-18-18-18-18--20-20-20--20-20---18-18-18-18--20-20-20---20-20-20-20-20-20-20-|
G|-19-19-19-19--19-19-19--19-19---19-19-19-19--19-19-19------------------------|
D|-----------------------------------------------------------------------------|
A|-----------------------------------------------------------------------------|
E|-----------------------------------------------------------------------------|
(Verse 1) Last time.
e|-----------------------------------------------------------------------------|
B|-18-18-18-18---20-20-20/(down)-----------------------------------------------|
G|-19-19-19-19---19-19-19/(down)-----------------------------------------------|
D|-----------------------------------------------------------------------------|
A|-----------------------------------------------------------------------------|
E|-----------------------------------------------------------------------------|
Chorus.(Clean Tone)
e|---------6------------------12-12------------------------------------------------|
B|-----6---6------11-11-10-10-10---------------------------------------------------|
G|-7-7--7--7----9--9-----9-----9---------------------------------------------------|
D|-7-------5---10-10----10----10---------------------------------------------------|
A|-5-------5-----------------------------------------------------------------------|
E|---------6-----------------------------------------------------------------------|
Solo. (Delay)
e|-----------------------------------------------------------------------------|
B|-----------------------------------------------------------------------------|
G|-----------------------------------------------------------------------------|
D|-----------------------------------------------------------------------------|
A|----12b(13)-12b(13)-12-------------------------------------------------------|
E|-5---------------------13-13-13-12-13---8b(10)8------------------------------|

Verse 2. (Delay)
e|-16-16-16-16-16-16/9--16-16-16/14-14-14/13-13-13/11-11-11/9-9-9/16---------|
B|---------------------------------------------------------------------------|
G|---------------------------------------------------------------------------|
D|---------------------------------------------------------------------------|
A|---------------------------------------------------------------------------|
E|---------------------------------------------------------------------------|
Last Time.
e|-16-16-16-14-14-14-13-13-13--------------------------------------------------|
B|---0--0--0--0--0--0--0--0--0-------------------------------------------------|
G|-----------------------------------------------------------------------------|
D|-----------------------------------------------------------------------------|
A|-----------------------------------------------------------------------------|
E|-----------------------------------------------------------------------------|
Chorus. (Clean Tone)
[ Tab from: http://www.guitartabs.cc/tabs/r/red_hot_chili_peppers/factory_of_faith_tab.html ]
e|---------6------------------12-12------------------------------------------------|
B|-----6---6------11-11-10-10-10---------------------------------------------------|
G|-7-7--7--7----9--9-----9-----9---------------------------------------------------|
D|-7-------5---10-10----10----10---------------------------------------------------|
A|-5-------5-----------------------------------------------------------------------|
E|---------6-----------------------------------------------------------------------|
Bridge. (Clean Tone) **Pick Listed Chords**
e!-----------------------------------------------------------------------------|

Продолжаем грести бабос на ботах в Telegram.
Только в этот раз есть вариант автоматизировать это дело, привлекая рефералов. Вы можете заработать если »

B|-----------------------------------------------------------------------------| G|----------------6--5--7--5---------------------------------------------------| D|-7--5--7--5-7-5-6--5--7--5--8------------------------------------------------| A|-7--5--7--5-7-5-4--3--5--3--8------------------------------------------------| E|-5--3--5--3-5-3-------------6------------------------------------------------| e!-----------------------------------------------------------------------------| B|-----------------------------------------------------------------------------| G|----------------6--5--7--5-5-------------------------------------------------| D|-7--5--7--5-7-5-6--5--7--5-5-------------------------------------------------| A|-7--5--7--5-7-5-4--3--5--3-3-------------------------------------------------| E|-5--3--5--3-5-3--------------------------------------------------------------| e!-----------------------------------------------------------------------------| B|-----------------------------------------------------------------------------| G|----------------6--5--7--5---------------------------------------------------| D|-7--5--7--5-7-5-6--5--7--5--8------------------------------------------------| A|-7--5--7--5-7-5-4--3--5--3--8------------------------------------------------| E|-5--3--5--3-5-3-------------6------------------------------------------------| e!---------------------------------------------------------------------------0-| B|---------------------------------------------------------------------------0-| G|----------------6--5--7--5-5--3-3--2-2-2-2-2-2-2-2/14-14-14-14-14-14-14-14-0-| D|-7--5--7--5-7-5-6--5--7--5-5--3-3--2-2-2-2-2-2-2-2/14-14-14-14-14-14-14-14-0-| A|-7--5--7--5-7-5-4--3--5--3-3--1-1--0-0-0-0-0-0-0-0/12-12-12-12-12-12-12-12-0-| E|-5--3--5--3-5-3------------------------------------------------------------0-| **Strum from this Chord onwards** Chorus. (Clean Tone) e|---------6------------------12-12------------------------------------------------| B|-----6---6------11-11-10-10-10---------------------------------------------------| G|-7-7--7--7----9--9-----9-----9---------------------------------------------------| D|-7-------5---10-10----10----10---------------------------------------------------| A|-5-------5-----------------------------------------------------------------------| E|---------6-----------------------------------------------------------------------| Outro. **Strum very FAST** (Phaser) e|----------------------5-*-5-*-5-*-5-*-5-*-5-10-*-10-*-10-*-10-*9-9-9-9-9-9-9-9--| B|----------------------6-*-6-*-6-*-8-*-8-*-8-10-*-10-*-10-*-10-*9-9-9-9-9-9-9-9--| G|----------------------7-*-7-*-7-*-7-*-7-*-7-10-*-10-*-10-*-10-*9-9-9-9-9-9-9-9--| D|--------------------------------------------------------------------------------| A|--------------------------------------------------------------------------------| E|-7-*-7-*-7-*-7-*-7-*-7----------------------------------------------------------| Last Time. e|-10-*-10-*-10-*-10-*10---10/down------------------------------------------------| B|-10-*-10-*-10-*-10-*10---10/down------------------------------------------------| G|-10-*-10-*-10-*-10-*10---10/down------------------------------------------------| D|--------------------------------------------------------------------------------| A|--------------------------------------------------------------------------------| E|--------------------------------------------------------------------------------|








О сайтеАккордыХит-парадПоискУроки ФорумыИщу песню
ПрограммыСвежачок-сПодпискаСтатьи
Яндекс.Метрика