Басовая табулатура Red Hot Chili Peppers | The Adventures Of Rain Dance Maggie гитара табулатуры уроки тексты песен Red Hot Chili Peppers текст lyrics песня аккорды песни ноты нота электрогитара струна  
   А Б В Г Д Е Ж З И К Л М Н О П Р С Т У Ф Х Ч Ш Ы Э Ю Я       Разные песни
1-9 A B C D E F G H I J K L M N O P Q R S T U V W Y Z      Все исполнители in english

    



группа Red Hot Chili Peppers, Басовая табулатура песни The Adventures Of Rain Dance Maggie

Группа: Red Hot Chili Peppers - другие аккорды (395),   о группе (3 статей),   диски (15),   фотографии (113)
Басовая табулатура песни: The Adventures Of Rain Dance Maggie
Просмотров: 1121
Прислал: Back Door Man




    
This song will be so HUGE once more people discover it.
Intro/Verse
G:----------------------------------------|
D:----------------------------------------|
A:-7--7--7-10-10-7-5-4---------5-5---5-6-7|
E:---------------------8--8--8-----8------|

G:---------------------------------------|
D:-------------------5-------------------|
A:-7--7--7-10-10-7-5------------5-5------|
E:----------------------8--8--8-----8-7-5|
Chorus/Slapping Section
(just listen to fleas rhythm, or do your own thing. Anything sounds good)
G:-------12---12---------9----9--|
D:-------------------------------|   X2
A:-10-10---10----10--7-7---7----7|
E:-------------------------------|

Продолжаем грести бабос на ботах в Telegram.
Только в этот раз есть вариант автоматизировать это дело, привлекая рефералов. Вы можете заработать если »

G:------5-----5----------4-----4---| D:---------------------------------| A:-3-3-----3-----3--2-2-----2-----2| E:---------------------------------| G:-----------------------------------| D:--------7-----7--------------------| A:--------------------3-3-4-4-5-5-5-5| E:--5--5-----5-----5-----------------| I know this tab might seem a little bit more difficult to finger than the other tab thats up. But i know for a fact that Flea doesnt use little one-stringers, he explores. And to be completely honest, it sounds tons better with the lower E string rather than the A. Questions, Comments, Concerns, Complaints? I'll take 'em! xslapadabassx@gmail.com








О сайтеАккордыХит-парадПоискУроки ФорумыИщу песню
ПрограммыСвежачок-сПодпискаСтатьи
Яндекс.Метрика