Табулатура Red Hot Chili Peppers | The Adventures Of Rain Dance Maggie  (2) гитара табулатуры уроки тексты песен Red Hot Chili Peppers текст lyrics песня аккорды песни ноты нота электрогитара струна  
   А Б В Г Д Е Ж З И К Л М Н О П Р С Т У Ф Х Ч Ш Ы Э Ю Я       Разные песни
1-9 A B C D E F G H I J K L M N O P Q R S T U V W Y Z      Все исполнители in english

    



группа Red Hot Chili Peppers, Табулатура песни The Adventures Of Rain Dance Maggie (2)

Продолжаем грести бабос на ботах в Telegram.
Только в этот раз есть вариант автоматизировать это дело, привлекая рефералов. Вы можете заработать если »

Группа: Red Hot Chili Peppers - другие аккорды (395),   о группе (3 статей),   диски (15),   фотографии (113)
Табулатура песни: The Adventures Of Rain Dance Maggie (2)
Просмотров: 1379
Прислал: Back Door Man




    
THE ADVENTURES OF RAINDANCE MAGGIE – RED HOT CHILI PEPPERS 2011
-----------------------------------------------------------------------------Note: ( ) 
is to show multiple repeats for a note, not showing ghost notes
Tabbed by:Dylan Stewart this is my 1st tab, go easy on me. :)
Email: dstewy21@yahoo.com
Tuning:Standard
Intro
e|-------------------------------------------------------------------------|
B|-------------------------------------------------------------------------|
G|------9~~~~-------------------9~~~~--------------9~~~~-------------------|
D|------9~~~~---x2--------------9~~~~---x3---------9~~~~----------5-5------|
A|----- 7~~~~---------7brb------7~~~~---------7brb-7~~~~--7brb-------------|
E|--------------------------------------------------------------------xx---|
e|-------------------------------------------------------------------------|
B|-------------------------------------------------------------------------|
G|--9~~~~------------------9-9----------9—9~~~---9~~~---------[9~~~]-------|
D|--9~~~~------------7h9----------------9—9~~~---9~~~---------[9~~~]x2-----|
A|--7~~~~----7brb-----------------------7-7~~~---7~~~--7brb---[7~~~]--7brb-|
E|-------------------------------------------------------------------------|
Chorus
“Hey now” “We gotta make it rain somehow”
G   Em     G                   Em
 “She told me..show what to..how to make it loud”
     C         Bm          Am         D
              [On the second time..lead]
e|-------------------------------------10----------10h12p10-------8--------|
B|----8—10brb-8------------------8—10b-----------------------10------------|
G|--------------9-------------------------9--------------------------------|
D|--------------------7h9p7------------------------------------------------|
A|-------------------------------------------------------------------------|
E|-------------------------------------------------------------------------|
e|--10h12--15---------17brb------------------------------------------------|
B|-------------12-----------17brb---10brbh8--------------------------------|
G|------------------------------------------9-----------9~~--9~~-----------|
D|------------------------------------------------------9~~--9~~--------7h9|
A|------------------------------------------------------7~~--7~~----7brb---|
E|-------------------------------------------------------------------------|
e|-------------------------------------------------------------------------|
B|-------------------------------------------------------------------------|
G|-9~~--9~~-------------9~~--9~~-------------------------------------------|
D|-9~~--9~~--------7h9--9~~--9~~-------------------------------------------|
A|-7~~--7~~--7brb-------7~~--7~~----7brb-----------------------------------|
E|-------------------------------------------------------------------------|
           Chorus
“Hey now” “We gotta make it rain somehow”
G   Em     G                   Em
 “She told me..show what to..how to make it loud”
     C         Bm          Am         D
e|-------------------------------------10----------10h12p10-------8--------|
B|----8—10brb-8------------------8—10b-----------------------10------------|
G|--------------9-------------------------9--------------------------------|
D|--------------------7h9p7------------------------------------------------|
A|-------------------------------------------------------------------------|
E|-------------------------------------------------------------------------|
						    [Solo]
e|--10h12--15---------17brb------------------------------------------------|
B|-------------12-----------17brb---10brbh8--------------------------------|
G|------------------------------------------9------------------------------|
D|-------------------------------------------------------------------------|
A|------------------------------------------------------5------------------|
E|-------------------------------------------------5/7----7b-7b-7b-7b-7b-7b|
						[This part is sketchy]
e|----------------------------------------12brb----------------------------|
B|----------------------------8brb—10brb---------5b-5b-5b-5b-5b-5b-5b-5b-5b|
G|-------------------------------------------------------------------------|

Продолжаем грести бабос на ботах в Telegram.
Только в этот раз есть вариант автоматизировать это дело, привлекая рефералов. Вы можете заработать если »

D|-------------9h10p9h10p9-------------------------------------------------| A|--7h9brbp7---------------------------------------------------------------| E|-------------------------------------------------------------------------| e|-------------------------------------------------------------------------| B|5b-5b-5b-5b-5b--------5b-5b-5b-5b---------------5b-5b-5b-5b--------------| G|------------------4~---------------4h5p4—4h5p4----------------4h5p4------| D|-------------------------------------------------------------------------| A|-------------------------------------------------------------------------| E|-------------------------------------------------------------------------| Chorus “Hey now” “We gotta make it rain somehow” G Em G Em “She told me..show what to..how to make it loud” C Bm Am D e|------7brb---------------------7b-7b------------------10h12p10-------8---| B|----8-----------------------8—-------8--------------------------10-------| G|--------------9-------------------------9--------------------------------| D|--------------------7h9p7------------------------------------------------| A|-------------------------------------------------------------------------| E|-------------------------------------------------------------------------| e|--10h12--15---------17brb-------------------------| B|-------------12-----------17brb---10brbh8---------| G|------------------------------------------9-------| D|--------------------------------------------------| A|--------------------------------------------------| E|--------------------------------------------------| Chorus “Hey now” “We gotta make it rain somehow” G Em G Em “She told me..show what to..how to make it loud” C Bm Am D e|-----------------------12-15brb-------------------------10h12p10-------8-| B|----8—10brb-8----15brb--------------1212b---8--------------------10------| G|--------------9--------------------------------9-------------------------| D|-------------------------------------------------------------------------| A|-------------------------------------------------------------------------| E|-------------------------------------------------------------------------| e|---10h12---15---------17brb----------------------------------------------| B|---------------12-----------17brb---10brbh8---------(9)----------9-------| G|---------------------------------------------9------(9)x7--------9---7brb| D|----------------------------------------------------(7)----7brb--7—7brb--| A|-------------------------------------------------------------------------| E|-------------------------------------------------------------------------| e|-(0)---------------------------------------------------------------------| B|-(0)---------------------------------------------------------------------| G|-(9)---------------------------------------------------------------------| D|-(9)x6-------------------------------------------------------------------| A|-(7)---------------------------------------------------------------------| E|-------------------------------------------------------------------------| The End... Thank you guys this was my first tab! | / slide up | slide down | h hammer-on | p pull-off | ~ vibrato | + harmonic | x Mute note | b Bend | pb Pre-bend | br Bend release | pbr Pre-bend release | brb Bend release bend ************************************

найти лекарство
список лекарств






О сайтеАккордыХит-парадПоискУроки ФорумыИщу песню
ПрограммыСвежачок-сПодпискаСтатьи
Яндекс.Метрика