Табулатура Red Hot Chili Peppers | The Adventures Of Rain Dance Maggie гитара табулатуры уроки тексты песен Red Hot Chili Peppers текст lyrics песня аккорды песни ноты нота электрогитара струна  
   А Б В Г Д Е Ж З И К Л М Н О П Р С Т У Ф Х Ч Ш Ы Э Ю Я       Разные песни
1-9 A B C D E F G H I J K L M N O P Q R S T U V W Y Z      Все исполнители in english

    



группа Red Hot Chili Peppers, Табулатура песни The Adventures Of Rain Dance Maggie

Продолжаем грести бабос на ботах в Telegram.
Только в этот раз есть вариант автоматизировать это дело, привлекая рефералов. Вы можете заработать если »

Группа: Red Hot Chili Peppers - другие аккорды (395),   о группе (3 статей),   диски (15),   фотографии (113)
Табулатура песни: The Adventures Of Rain Dance Maggie
Просмотров: 1445
Прислал: Back Door Man




    
Artist: Red Hot Chili Peppers (RHCP)
Song: The Adventures of Rain Dance Maggie
Year: 2011
LEGEND
v  - Vibrato
br - Bend Release
b  - Bend
/  - Slide Up
  - Slide Down
*Main Bass Line*
G|----------------------------------|
D|--------55------------------------|
A|--7-7-7----7-5-4--3-3-3-55-3-5-6--|
E|----------------------------------|
G|----------------------------------|
D|--------55-----5------------------|
A|--7-7-7----7-5----3-3-3-55-3-2-0--|
E|----------------------------------|

*NOTE* - When playing the verse you can play either:
|-------|        |------------|
|-------|        |------------|
|-------|   or   |------------|
|-------|        |------------|
|-7brv--|        |--7/97v----|
|-------|        |------------|
*VERSE*
|------------------------------------------|
|------------------------------------------|
|--9v----9v---------9v----9v----9v---------|
|--9v----9v---------9v----9v----9v---------|
|--7v----7v--7br9v--7v----7v----7v--7br9v--|
|------------------------------------------|
|------------------------------------------|
|------------------------------------------|
|--9v-------------9v-----------------------|
|--9v-------5-5---9v--------7h9-xx-5-5-----|
|--7v-7br9v-------7v--7br9v----------------|
|------------------------------------------|
|------------------------------------------|
|------------------------------------------|
|---9v----9v---------9v----9v--------------|
|---9v----9v---------9v----9v-x------------|
|-7-7v----7v--7br9v--7v----7v-x--7br9v-----|
|-----------------------------x------------|

*CHORUS*
|--33333333------------|
|--33333333------------|
|--44444444-99999999---| (X2) Then
|--55555555-99999999---|
|--55555555-77777777---|
|--33333333------------|
|---------------------------------------|
|---------------------------------------|
|--55555555-44444444----------77777777--|
|--55555555-44444444-77777777-77777777--|
|--33333333-22222222-77777777-55555555--|
|--------------------55555555-----------|
*CHORUS LEAD MELODY*
|--------------------------------------------------|
|---------------------------------15---------------|
|--12~-14br16-12-----------12--14b16--14p12--------|
|-----------------14v-----------------------14v----|
|---------------------12br-------------------------|
|--------------------------------------------------|
|----------------------15--------------------------|
|--15br17--10-13v--15br17--13-12-------------------|
|--------------------------------------------------|
|--------------------------------------------------|
|--------------------------------------------------|
|--------------------------------------------------|
|--15br17--12--------------------------------------|
|-------------15bv---------------------------------|
|--------------------14br16-12-14v-----------------|
|--------------------------------------------------|
|--------------------------------------------------|
|--------------------------------------------------|
*VERSE*
|--------------------------------------------------|
|--------------------------------------------------|
|--9v----9v---------------9v----9v-----------------|
|--9v----9v--------xx-7h9-9v----9v--------xx-7h9---|
|--7v----7v--7br9v--------7v----7v--7br9v----------|
|--------------------------------------------------|
|--------------------------------------------------|
|--------------------------------------------------|
|--9v----9v----------------------------------------|
|--9v----9v--------5-x-5---------------------------|
|--7v----7v--7br9v---------------------------------|
|--------------------------------------------------|
*CHORUS*
RHYTHM - GUITAR 2
|--33333333------------|
|--33333333------------|
|--44444444-99999999---| (X2) Then
|--55555555-99999999---|
|--55555555-77777777---|
|--33333333------------|
|---------------------------------------|
|---------------------------------------|
|--55555555-44444444----------77777777--|
|--55555555-44444444-77777777-77777777--|
|--33333333-22222222-77777777-55555555--|
|--------------------55555555-----------|
*CHORUS LEAD MELODY* - GUITAR 1
|--------------------------------------------------|
|---------------------------------15---------------|
|--12~-14br16-12-----------12--14b16--14p12--------|
|-----------------14v-----------------------14v----|
|---------------------12br-------------------------|
|--------------------------------------------------|
|---------------------------15---------------------|
|--15br17--10-13v-------15br17--13-12--------------|
|--------------------------------------------------|

Продолжаем грести бабос на ботах в Telegram.
Только в этот раз есть вариант автоматизировать это дело, привлекая рефералов. Вы можете заработать если »

|--------------------------------------------------| |--------------------------------------------------| |--------------------------------------------------| |--15br17--12--------------------------------------| |-------------15bv---------------------------------| |--------------------14br16-12-14v--12-14br16-12---| |-----------------------------------------------14-| |--------------------------------------------------| |--------------------------------------------------| *Bridge/Solo* - Use Effects |--------------------------------------------------| |--------------------------------------------------| |-------------------------------9------------------| |------------------------------9v------------------| |------5brv--2-2-2-2v-------7v---------------------| |--/7v----------------3-3p0------------------------| |--------------------------------------------------| |---------------------------17v--------------------| |--10brbrv-12brbrv-14brbrv--19bv-------------------| |--------------------------------------------------| |--------------------------------------------------| |--------------------------------------------------| |--------------------------------------| |--------------------------------------| |--9v-----Josh plays this for----------| Then |---------awhile with some effects-----| |--------------------------------------| |--------------------------------------| |--------| |--------| |--94---| - Josh plays around with these two notes. |--------| |--------| |--------| *CHORUS* RHYTHM - GUITAR 2 |--33333333------------| |--33333333------------| |--44444444-99999999---| (X2) Then |--55555555-99999999---| |--55555555-77777777---| |--33333333------------| |---------------------------------------| |---------------------------------------| |--55555555-44444444----------77777777--| |--55555555-44444444-77777777-77777777--| |--33333333-22222222-77777777-55555555--| |--------------------55555555-----------| *CHORUS LEAD MELODY* - GUITAR 1 |--------------------------------------------------| |--------------------------------------------------| |--12~-14br16-12-----------12--14b16-14br16-12-----| |-----------------14v-------------------------14v--| |---------------------12br-------------------------| |--------------------------------------------------| |---------------------------15---------------------| |--15br17--10-13v-------15br17--13-12--------------| |--------------------------------------------------| |--------------------------------------------------| |--------------------------------------------------| |--------------------------------------------------| |--15br17--12--------------------------------------| |-------------15bv---------------------------------| |--------------------14br16-12-14v-----------------| |--------------------------------------------------| |--------------------------------------------------| |--------------------------------------------------| |-----------------------------12-15br17------------| |-------------------------15b----------------------| |--12~-14br16-12-----------------------------------| |-----------------14v------------------------------| |---------------------12br-------------------------| |--------------------------------------------------| |------------------------------------------------------| |------------------------------------------------------| |--12-14br16-14br16-12---------------------------------| |---------------------14v------------------------------| |------------------------------------------------------| |------------------------------------------------------| |----------10-13v------15--------------------------| |--15br17----------15br17--13-12-------------------| |--------------------------------------------------| |--------------------------------------------------| |--------------------------------------------------| |--------------------------------------------------| |--15br17--12--------------------------------------| |-------------15bv---------------------------------| |--------------------14br16-12-14v-----------------| |--------------------------------------------------| |--------------------------------------------------| |--------------------------------------------------| *OUTRO* |--------------------------------------------------| |--------------------------------------------------| |---9v--9v--9v--9v--9v--9v--9v------9v-------------| |---9v--9v--9v--9v--9v--9v--9v------9v------7br9---| |---7v--7v--7v--7v--7v--7v--7v-7br9-7v-7br9--------| |--------------------------------------------------| e|----------------------------| B|----------------------------| G|----------------------------| Keep playing this and then play D|----------7h9p7-------------| the variation: A|--10-7-10-------------------| E|----------------------------| e|----------------------------| B|----------------------------| G|----------------------------| D|-------------7h9p7----------| A|--10-7br9-10----------------| E|----------------------------|

искать в аптеке
список лекарств






О сайтеАккордыХит-парадПоискУроки ФорумыИщу песню
ПрограммыСвежачок-сПодпискаСтатьи
Яндекс.Метрика