Табулатура Crosby Stills Nash And Young | 4 And 20 (four And Twenty) гитара табулатуры уроки тексты песен Crosby Stills Nash And Young текст lyrics песня аккорды песни ноты нота электрогитара струна  
   А Б В Г Д Е Ж З И К Л М Н О П Р С Т У Ф Х Ч Ш Ы Э Ю Я       Разные песни
1-9 A B C D E F G H I J K L M N O P Q R S T U V W Y Z      Все исполнители in english

    



группа Crosby Stills Nash And Young, Табулатура песни 4 And 20 (four And Twenty)

Работа в Европе для граждан РФ, Украины, СНГ

  • минимальная зарплата $500.
  • виза и контракт на полгода, возможно продление
  • проживание оплачивает работодатель
  • нужен только загранпаспорт
  • оформление 190 €
  • данное предложение - отличная возможность эмигрировать в Европу и закрепиться здесь навсегда.

  • Мы свяжемся с Вами по WhatsApp или Viber и ответим на любые вопросы.
    на нашем сайте можно почитать подробнее »

    Группа: Crosby Stills Nash And Young - другие аккорды (5),   диски (1)
    Табулатура песни: 4 And 20 (four And Twenty)
    Просмотров: 5337
    Прислал: Back Door Man




        
    Artist: Crosby, Stills, Nash & Young
    Song : 4 + 20 (Déjà Vu 1970)
    Tuning: EEEEBE
    Transcriber: Phil Champ (phil.champ@ntlworld.com)
    
    E||-------7----------------|-------5----------------|
    B||---------------9--------|---------------7--------|
    E||---------------------0--|---------------------0--|
    E||------------------0-----|------------------0-----|
    E||------------0-----------|------------0-----------|
    E||--0---------------------|--0---------------------|
    
                                                      
    |--4----------------------|-----------4--------------|
    |----------------5--------|--2--0-----------5--------|
    |----------0-----------0--|-----------------------0--|
    |-------0-----------0-----|--------------------0-----|
    |-------------0-----------|--------0-----------------|
    |--0----------------------|--0-----------0-----------|
    
    Four and twenty
                                                     
    |--7----------------------|--5----------------------|
    |----------------9--------|----------------7--------|
    |----------0-----------0--|----------0-----------0--|
    |-------0-----------0-----|-------0-----------0-----|
    |-------------0-----------|-------------0-----------|
    |--0----------------------|--0----------------------|
    
                                                      
    |--4----------------------|-----------4--------------|
    |----------------5--------|--2--0-----------5--------|
    |----------0-----------0--|-----------------------0--|
    |-------0-----------0-----|--------------------0-----|
    |-------------0-----------|--------0-----------------|
    |--0----------------------|--0-----------0-----------|
    
    The son of a woman
                                                     
    |--7----------------------|--5----------------------|
    |----------------9--------|----------------7--------|
    |----------0-----------0--|----------0-----------0--|
    |-------0-----------0-----|-------0-----------0-----|
    |-------------0-----------|-------------0-----------|
    |--0----------------------|--0----------------------|
    
                                                      
    |--4----------------------|-----------4--------------|
    |----------------5--------|--2--0-----------5--------|
    |----------0-----------0--|-----------------------0--|
    |-------0-----------0-----|--------------------0-----|
    |-------------0-----------|--------0-----------------|
    |--0----------------------|--0-----------0-----------|
    
    He was tired
                                                    
    |----------------0-------|----------------0--------|
    |--0---------------------|--0----------------------|
    |----------3-------------|----------5-----------0--|
    |-------0-----------0----|-------0-----------0-----|
    |------------------------|-------------------------|
    |--3----------3----------|--5----------5-----------|
    
                                                         
    |--10--------10---------------|--10---------------------|
    |--------12---------12--------|-------------------------|
    |--------------------------0--|-----------0-----0-------|
    |-----------------------0-----|--------0-----------0----|
    |----------------0------------|--------------0----------|
    |--0--------------------------|--0----------------------|
    
    And he wasn't
                                                    
    |----------------0-------|----------------0--------|
    |--0---------------------|--0----------------------|
    |----------3-------------|----------5-----------0--|
    |-------0-----------0----|-------0-----------0-----|
    |------------------------|-------------------------|
    |--3----------3----------|--5----------5-----------|
    
                                                          
    |--10--------10---------------|--10----------------------|
    |--------12---------12--------|-----------------12-------|
    |--------------------------0--|-----------0--------------|
    |-----------------------0-----|--------0------------0----|
    |----------------0------------|--------------0-----------|
    |--0--------------------------|--0-----------------------|
    
    And he worked
                                                    
    |----------------0-------|----------------0--------|
    |--0---------------------|--0----------------------|
    |----------3-------------|----------5-----------0--|
    |-------0-----------0----|-------0-----------0-----|
    |------------------------|-------------------------|
    |--3----------3----------|--5----------5-----------|
    
                                                      
    |--10--------10---------------|--10------------------|
    |--------12---------12--------|----------------------|
    |--------------------------0--|-----------------0----|
    |-----------------------0-----|--------------0-------|
    |----------------0------------|----------------------|
    |--0--------------------------|--0-------------------|
    
    A different kind
                                                    
    |-------7----------------|--5----------------------|
    |---------------9--------|----------------7--------|
    |---------------------0--|----------0-----------0--|
    |------------------0-----|-------0-----------0-----|
    |------------0-----------|-------------0-----------|
    |--0---------------------|--0----------------------|
    
                                                      
    |--4----------------------|-----------4--------------|
    |----------------5--------|--2--0-----------5--------|
    |----------0-----------0--|-----------------------0--|
    |-------0-----------0-----|--------------------0-----|
    |-------------0-----------|--------0-----------------|
    |--0----------------------|--0-----------0-----------|
    
    Now upsets
                                                     
    |--7----------------------|--5----------------------|
    |----------------9--------|----------------7--------|
    |----------0-----------0--|----------0-----------0--|
    |-------0-----------0-----|-------0-----------0-----|
    |-------------0-----------|-------------0-----------|
    |--0----------------------|--0----------------------|
    
                                                      
    |--4----------------------|-----------4--------------|
    |----------------5--------|--2--0-----------5--------|
    |----------0-----------0--|-----------------------0--|
    |-------0-----------0-----|--------------------0-----|
    |-------------0-----------|--------0-----------------|
    |--0----------------------|--0-----------0-----------|
    
    Night after
                                                     
    |--7----------------------|--5----------------------|
    |----------------9--------|----------------7--------|
    |----------0-----------0--|----------0-----------0--|
    |-------0-----------0-----|-------0-----------0-----|
    |-------------0-----------|-------------0-----------|
    |--0----------------------|--0----------------------|
    
                                                     
    |--4----------------------|----------4--------------|
    |----------------5--------|--2--0----------5--------|
    |----------0-----------0--|----------------------0--|
    |-------0-----------0-----|-------------------0-----|
    |-------------0-----------|-------------------------|
    |--0----------------------|--0----------0-----------|
    
    I walk the floor
                                                     
    |--7----------------------|--5----------------------|
    |----------------9--------|----------------7--------|
    |----------0-----------0--|----------0-----------0--|
    |-------0-----------0-----|-------0-----------0-----|
    |-------------0-----------|-------------0-----------|
    |--0----------------------|--0----------------------|
    
                                                      
    |--4----------------------|-----------4--------------|
    |----------------5--------|--2--0-----------5--------|
    |----------0-----------0--|-----------------------0--|
    |-------0-----------0-----|--------------------0-----|
    |-------------0-----------|--------0-----------------|
    
    Узнай ВСЕ о своем друге в ВК или FB
    |--0----------------------|--0-----------0-----------| |--7----------------------|--5----------------------| |----------------9--------|----------------7--------| |----------0-----------0--|----------0-----------0--| |-------0-----------0-----|-------0-----------0-----| |-------------0-----------|-------------0-----------| |--0----------------------|--0----------------------| |--4----------------------|----------4--------------| |----------------5--------|--2--0----------5--------| |----------0-----------0--|----------------------0--| |-------0-----------0-----|-------------------0-----| |-------------0-----------|-------------------------| |--0----------------------|--0----------0-----------| Why am I |----------------0-------|----------------0--------| |--0---------------------|--0----------------------| |----------3-------------|----------5-----------0--| |-------0-----------0----|-------0-----------0-----| |------------------------|-------------------------| |--3----------3----------|--5----------5-----------| |--10--------10---------------|--10----------------------| |--------12---------12--------|-----------------12-------| |--------------------------0--|-----------0--------------| |-----------------------0-----|--------0------------0----| |----------------0------------|--------------0-----------| |--0--------------------------|--0-----------------------| Where is my |----------------0-------|----------------0--------| |--0---------------------|--0----------------------| |----------3-------------|----------5-----------0--| |-------0-----------0----|-------0-----------0-----| |------------------------|-------------------------| |--3----------3----------|--5----------5-----------| |--10--------10---------------|--10-----------------------| |--------12---------12--------|-----------------12--------| |--------------------------0--|-----------0------------0--| |-----------------------0-----|--------0------------0-----| |----------------0------------|--------------0------------| |--0--------------------------|--0------------------------| Have I driven |----------------0-------|----------------0--------| |--0---------------------|--0----------------------| |----------3-------------|----------5-----------0--| |-------0-----------0----|-------0-----------0-----| |------------------------|-------------------------| |--3----------3----------|--5----------5-----------| |--10--------10---------------|--10------------------| |--------12---------12--------|----------------------| |--------------------------0--|-----------------0----| |-----------------------0-----|--------------0-------| |----------------0------------|----------------------| |--0--------------------------|--0-------------------| |-------7----------------|--5----------------------| |---------------9--------|----------------7--------| |---------------------0--|----------0-----------0--| |------------------0-----|-------0-----------0-----| |------------0-----------|-------------0-----------| |--0---------------------|--0----------------------| |-------4----------------|-----------4--------------| |---------------5--------|--2--0-----------5--------| |---------------------0--|-----------------------0--| |------------------0-----|--------------------0-----| |------------0-----------|--------0-----------------| |--0---------------------|--0-----------0-----------| Morning comes |--7----------------------|--5----------------------| |----------------9--------|----------------7--------| |----------0-----------0--|----------0-----------0--| |-------0-----------0-----|-------0-----------0-----| |-------------0-----------|-------------0-----------| |--0----------------------|--0----------------------| |--4----------------------|----------4--------------| |----------------5--------|--2--0----------5--------| |----------0-----------0--|----------------------0--| |-------0-----------0-----|-------------------0-----| |-------------0-----------|-------------------------| |--0----------------------|--0----------0-----------| I see that |--7----------------------|--5----------------------| |----------------9--------|----------------7--------| |----------0-----------0--|----------0-----------0--| |-------0-----------0-----|-------0-----------0-----| |-------------0-----------|-------------0-----------| |--0----------------------|--0----------------------| |--4----------------------|--------0--------0--------| |----------------5--------|--2--0-----0--------------| |----------0-----------0--|-----------------------0--| |-------0-----------0-----|--------------------0-----| |-------------0-----------|--------------0-----------| |--0----------------------|--0-----------------------| I embrace |----------------0-------|----------------0--------| |--0---------------------|--0----------------------| |----------3-------------|----------5-----------0--| |-------0-----------0----|-------0-----------0-----| |------------------------|-------------------------| |--3----------3----------|--5----------5-----------| |--10--------10---------------|--10----------------------| |--------12---------12--------|--------------------------| |--------------------------0--|-----------0-----0-----0--| |-----------------------0-----|--------0-----------0-----| |----------------0------------|--------------0-----------| |--0--------------------------|--0-----------------------| I grow weary |----------------0------|----------------0--------| |--0--------------------|--0----------------------| |----------3------------|----------5-----------0--| |-------0---------------|-------0-----------0-----| |-----------------------|-------------------------| |--3----------3---------|--5----------5-----------| |--10-----------------------|--10-----------------------| |-----------------12--------|-----------------12--------| |-----------0------------0--|-----------0------------0--| |--------0------------0-----|--------0------------0-----| |--------------0------------|--------------0------------| |--0------------------------|--0------------------------| And I find |----------------0-------|----------------0--------| |--0---------------------|--0----------------------| |----------3-------------|----------5-----------0--| |-------0-----------0----|-------0-----------0-----| |------------------------|-------------------------| |--3----------3----------|--5----------5-----------| |--10-----------------------|-----10----------|| |-----------------12--------|-----------------|| |-----------0------------0--|-----------------|| |--------0------------0-----|-----------------|| |--------------0------------|-----------------|| |--0------------------------|--0--------------||

    искать в аптеке
    список лекарств






    О сайтеАккордыХит-парадПоискУроки ФорумыИщу песню
    ПрограммыСвежачок-сПодпискаСтатьи
    Яндекс.Метрика