Табулатура Red Hot Chili Peppers | Slow Cheetah гитара табулатуры уроки тексты песен Red Hot Chili Peppers текст lyrics песня аккорды песни ноты нота электрогитара струна  
   А Б В Г Д Е Ж З И К Л М Н О П Р С Т У Ф Х Ч Ш Ы Э Ю Я       Разные песни
1-9 A B C D E F G H I J K L M N O P Q R S T U V W Y Z      Все исполнители in english

    



группа Red Hot Chili Peppers, Табулатура песни Slow Cheetah

Группа: Red Hot Chili Peppers - другие аккорды (395),   о группе (3 статей),   диски (15),   фотографии (113)
Табулатура песни: Slow Cheetah
Просмотров: 1615
Прислал: Back Door Man




    
Capo 6th fret
Steel string acoustic guitar through (except when noted otherwise)
Fig. 1 (verse)
E----------------------------------------------------------------------------0-------
B-------------------------------------------------------0----------------------------
G---------------0------------------0------------2--------------------0---------------
D-------2-------------------0--------------------------------------------------------
A------------------------------------------0---------0-----0----3---------3-----3----
E--0---------0-----0----3-------3-----3----------------------------------------------

E----------------------------------------------------------------------------0-------
B-------------------------------------------------------0----------------------------
G---------------0------------------0------------2--------------------0---------------
D-------2-------------------0--------------------------------------------------------
A------------------------------------------0---------0-----0----3---------3-----3----
E--0---------0-----0----3-------3-----3----------------------------------------------

Fig. 2 (verse)
E-------2-------0----------------------------------------------------------------------
B-------0-------0------------3-------0-------------------------------------------------
G----------------------------0-------0------------2-------0----------------------------
D----------------------------------------------------------------------2-------0-------
A--------------------------------------------0---------0-----0----3---------3-----3----
E--0---------0-----0----3---------3-----3----------------------------------------------

E-------2-------0----------------------------------------------------------------------
B-------0-------0------------3-------0-------------------------------------------------
G----------------------------0-------0------------2-------0--------------------0-------
D----------------------------------------------------------------------2---------------
A--------------------------------------------0---------0-----0----3---------3-----3----
E--0---------0-----0----3---------3-----3----------------------------------------------

Fig. 3 (verse)
E----------------------------------------------------------------------------0-------
B-------------------------------------------------------0----------------------------
G---------------0------------------0------------2-------2------------0---------------
D-------2-------------------0------0-------------------------------------------------
A------------------------------------------0---------0-----0----3---------3-----3----
E--0---------0-----0----3-------3-----3----------------------------------------------

E----------------------------------------------------------------------------0-------
B-------------------------------------------------------0----------------------------
G---------------0------------------0------------2--------------------0---------------
D-------2-------------------0--------------------------------------------------------
A------------------------------------------0---------0-----0----3---------3-----3----
E--0---------0-----0----3-------3-----3----------------------------------------------

Fig. 4 (verse)
E-------2-------0----------------------------------------------------------------------
B-------0-------0------------3-------0-------------------------------------------------
G----------------------------0-------0------------2-------0----------------------------
D----------------------------------------------------------------------2-------0-------
A--------------------------------------------0---------0-----0----3---------3-----3----
E--0---------0-----0----3---------3-----3----------------------------------------------

E-------2-------0-----------------------------0-----0-----0--0--0--0--0---0-----0--0---
B-------0-------0------------3-------0--------1-----1-----1--1--1--1--1---1-----1--1---
G----------------------------0-------0--------2-----2-----2--2--2--2--2---2-----2--2---
D---------------------------------------------2-----2-----2--2--2--2--2---2-----2--2---
A---------------------------------------------0-----0-----0--0--0--0--0---0-----0--0---
E--0---------0-----0----3---------3-----3----------------------------------------------

Fig. 5 (Pre-chorus)
_________________________
|
E--0-----0-----0--0--0--0--0--0--0--0--0--0--
B--1-----1-----1--1--1--1--1--1--1--1--1--1--
G--2-----2-----2--2--2--2--2--2--2--2--2--2--
D--2-----2-----2--2--2--2--2--2--2--2--2--2--
A--0-----0-----0--0--0--0--0--0--0--0--0--0--
E--------------------------------------------
|

E--0-----0-----0--0--0--0--0--0--0--0--0--0--
B--1-----1-----1--1--1--1--1--1--1--1--1--1--
G--2-----2-----2--2--2--2--2--2--2--2--2--2--
D--2-----2-----2--2--2--2--2--2--2--2--2--2--
A--0-----0-----0--0--0--0--0--0--0--0--0--0--
E--------------------------------------------
|_________________________

Fig. 6 (Chorus)
E------------0----0--0------------3----3--3--0-----0-----0--0--0--0--0---0-----0--0--
B------------1----1--1------------3----3--3--1-----1-----1--1--1--1--1---1-----1--1--
G--0----0----0----0--0------------0----0--0--2-----2-----2--2--2--2--2---2-----2--2--
D--2----2----2----2--2------------0----0--0--2-----2-----2--2--2--2--2---2-----2--2--
A--3----3----3----3--3--2----2----2----2--2--0-----0-----0--0--0--0--0---0-----0--0--
E-----------------------3----3----3----3--3------------------------------------------


E------------0----0--0------------3----3--3--0-----0-----0--0--0--0--0---0-----0--0--
B------------1----1--1------------3----3--3--1-----1-----1--1--1--1--1---1-----1--1--
G--0----0----0----0--0------------0----0--0--2-----2-----2--2--2--2--2---2-----2--2--
D--2----2----2----2--2------------0----0--0--2-----2-----2--2--2--2--2---2-----2--2--
A--3----3----3----3--3--2----2----2----2--2--0-----0-----0--0--0--0--0---0-----0--0--
E-----------------------3----3----3----3--3------------------------------------------

Fig. 7 (Alternate Pre-chorus)
_________________________
|
E--0-----0-----0--0--x--0---0---0---0--0--0--
B--1-----1-----0--0--x--1---0---1---0--0--0--
G--2-----2-----2--2--x--2---2---2---2--2--2--
D--2-----2-----2--2--x--2---2---2---2--2--2--
A--0-----0-----0--0--x--0---0---0---0--0--0--
E--------------------------------------------


| (Electric clean)
E--0-----0-----0--0--0--0--0--0--0--0--0--0--
B--1-----1-----1--1--1--1--1--1--1--1--1--1--
G--2-----2-----2--2--2--2--2--2--2--2--2--2--
D--2-----2-----2--2--2--2--2--2--2--2--2--2--
A--0-----0-----0--0--0--0--0--0--0--0--0--0--
E--------------------------------------------
|_________________________


Fig. 8
E--0-----0--0--0-----0-----0-----0-------------------------------------------------
B--1-----1--1--1-----1-----1-----1-------------------------------------------------
G--2-----2--2--2-----2-----2-----2-------------------------------------------------
D--2-----2--2--2-----2-----2-----2-------------------------------------------------
A--0-----0--0--0-----0-----0-----0-------------------------------------------------
E----------------------------------------------------------------------------------

Fig. 9 (Interlude)
E------------------------------------------------------------------------------------
B-------------------------------0----------------------------------0------1----0-----
G---------------0-------2------------2--------------------2--------2--------------2--
D-------0-------------------------------0---------2----------------------------------
A--------------------------------------------0---------0-----0---------0-------------
E--3---------3-----3---------3-------------------------------------------------------


E------------------------------------------------------------------------------------
B-------------------------------0----------------------------------0------1----0-----
G---------------0-------2------------2--------------------2-----------------------2--
D-------0-------------------------------0---------2----------------------------------
A--------------------------------------------0---------0-----0---------0-------------
E--3---------3-----3---------3-------------------------------------------------------


E------------------------------------------------------------------------------------
B-------------------------------0----------------------------------0------1----0-----
G---------------0-------2------------2--------------------2-----------------------2--
D-------0-------------------------------0---------2----------------------------------
A--------------------------------------------0---------0-----0---------0-------------
E--3---------3-----3---------3-------------------------------------------------------


E--------------------------------------------0-----0-----0--0--0--0--0---0-----0--0--
B-------------------------------0------------1-----1-----1--1--1--1--1---1-----1--1--
G---------------0-------2------------2-------2-----2-----2--2--2--2--2---2-----2--2--
D-------0-------------------------------0----2-----2-----2--2--2--2--2---2-----2--2--
A--------------------------------------------0-----0-----0--0--0--0--0---0-----0--0--
E--3---------3-----3---------3-------------------------------------------------------

_________________________
|
E--0-----0-----0--0--x--0---0---0---0--0--0--
B--1-----1-----0--0--x--1---0---1---0--0--0--
G--2-----2-----2--2--x--2---2---2---2--2--2--
D--2-----2-----2--2--x--2---2---2---2--2--2--
A--0-----0-----0--0--x--0---0---0---0--0--0--
E--------------------------------------------


| (Electric clean)
E--0-----0-----0--0--0--0--0--0--0--0--0--0--
B--1-----1-----1--1--1--1--1--1--1--1--1--1--
G--2-----2-----2--2--2--2--2--2--2--2--2--2--
D--2-----2-----2--2--2--2--2--2--2--2--2--2--
A--0-----0-----0--0--0--0--0--0--0--0--0--0--
E--------------------------------------------
|_________________________



Fig. 10 (Chorus with solo)
E------------0----0--0------------3----3--3--0-----0-----0--0--0--0--0---0-----0--0--
B------------1----1--1------------3----3--3--1-----1-----1--1--1--1--1---1-----1--1--
G--0----0----0----0--0------------0----0--0--2-----2-----2--2--2--2--2---2-----2--2--
D--2----2----2----2--2------------0----0--0--2-----2-----2--2--2--2--2---2-----2--2--
A--3----3----3----3--3--2----2----2----2--2--0-----0-----0--0--0--0--0---0-----0--0--
E-----------------------3----3----3----3--3------------------------------------------


________________________
|
E------------0----0--0------------3----3--3--0-----0-----0--0--0--0--0---0-----0--0--
B------------1----1--1------------3----3--3--1-----1-----1--1--1--1--1---1-----1--1--
G--0----0----0----0--0------------0----0--0--2-----2-----2--2--2--2--2---2-----2--2--
D--2----2----2----2--2------------0----0--0--2-----2-----2--2--2--2--2---2-----2--2--
A--3----3----3----3--3--2----2----2----2--2--0-----0-----0--0--0--0--0---0-----0--0--
E-----------------------3----3----3----3--3------------------------------------------

|
E-------------------------------------------------------------------9----------------
B------------------------------------------------------------------------------------
G-----------------------------------------------------------8fb-----------8rb-----6--
D------------------------------------------------------------------------------------
A------------------------------------------------------------------------------------
E------------------------------------------------------------------------------------
|_______________________


________________________
|
E------------0----0--0------------3----3--3--0-----0-----0--0--0--0--0---0-----0--0--
B------------1----1--1------------3----3--3--1-----1-----1--1--1--1--1---1-----1--1--
G--0----0----0----0--0------------0----0--0--2-----2-----2--2--2--2--2---2-----2--2--
D--2----2----2----2--2------------0----0--0--2-----2-----2--2--2--2--2---2-----2--2--
A--3----3----3----3--3--2----2----2----2--2--0-----0-----0--0--0--0--0---0-----0--0--
E-----------------------3----3----3----3--3------------------------------------------


|
E------------------------------------------------------------------------------------
B-----------------------9---11-------------------------------------------------------
G--6----6--------8/10------------108---6----8----8-------------6----8----8rb---6h8--
D--------------------------------------------------------6h8-------------------------

Продолжаем грести бабос на ботах в Telegram.
Только в этот раз есть вариант автоматизировать это дело, привлекая рефералов. Вы можете заработать если »

A------------------------------------------------------------------------------------ E------------------------------------------------------------------------------------ |_______________________ ________________________ | E------------0----0--0------------3----3--3--0-----0-----0--0--0--0--0---0-----0--0-- B------------1----1--1------------3----3--3--1-----1-----1--1--1--1--1---1-----1--1-- G--0----0----0----0--0------------0----0--0--2-----2-----2--2--2--2--2---2-----2--2-- D--2----2----2----2--2------------0----0--0--2-----2-----2--2--2--2--2---2-----2--2-- A--3----3----3----3--3--2----2----2----2--2--0-----0-----0--0--0--0--0---0-----0--0-- E-----------------------3----3----3----3--3------------------------------------------ | E------------------------------------------------------------------------------------ B-----------------------9---11------------------------------------------------------- G--6----6---------8/10-----------10/8---6----8-----------------6h8---6h8---8rb---6h8- D--------------------------------------------------------6h8------------------------- A------------------------------------------------------------------------------------ E------------------------------------------------------------------------------------ |_______________________ ________________________ | E------------0----0--0------------3----3--3--0-----0-----0--0--0--0--0---0-----0--0-- B------------1----1--1------------3----3--3--1-----1-----1--1--1--1--1---1-----1--1-- G--0----0----0----0--0------------0----0--0--2-----2-----2--2--2--2--2---2-----2--2-- D--2----2----2----2--2------------0----0--0--2-----2-----2--2--2--2--2---2-----2--2-- A--3----3----3----3--3--2----2----2----2--2--0-----0-----0--0--0--0--0---0-----0--0-- E-----------------------3----3----3----3--3------------------------------------------ | E------------------------------------------------------------------------------------ B-----------------------9---11------------------------------------------------------- G--6----6--------8/10------------108---6----8----8-------------6----8----8rb---6h8-- D--------------------------------------------------------6h8------------------------- A------------------------------------------------------------------------------------ E------------------------------------------------------------------------------------ |_______________________ ________________________ | E------------0----0--0------------3----3--3--0-----0-----0--0--0--0--0---0-----0--0-- B------------1----1--1------------3----3--3--1-----1-----1--1--1--1--1---1-----1--1-- G--0----0----0----0--0------------0----0--0--2-----2-----2--2--2--2--2---2-----2--2-- D--2----2----2----2--2------------0----0--0--2-----2-----2--2--2--2--2---2-----2--2-- A--3----3----3----3--3--2----2----2----2--2--0-----0-----0--0--0--0--0---0-----0--0-- E-----------------------3----3----3----3--3------------------------------------------ | E------------------------------------------------------------------------------------ B-----------------------9---11------------------------------------------------------- G--6----6--------8/10------------10/8---6----8--------------------------------------- D------------------------------------------------------------------------------------ A------------------------------------------------------------------------------------ E------------------------------------------------------------------------------------ |_______________________ Fig. 11 (Chorus end) E--0-----0-----0--0--0--0--0---0-----0--0--0-----0-----0--0--0--0--0---0-----0--0-- B--1-----1-----1--1--1--1--1---1-----1--1--1-----1-----1--1--1--1--1---1-----1--1-- G--2-----2-----2--2--2--2--2---2-----2--2--2-----2-----2--2--2--2--2---2-----2--2-- D--2-----2-----2--2--2--2--2---2-----2--2--2-----2-----2--2--2--2--2---2-----2--2-- A--0-----0-----0--0--0--0--0---0-----0--0--0-----0-----0--0--0--0--0---0-----0--0-- E---------------------------------------------------------------------------------- E--0-----0--0--0-----0-----0-----0------------------------------------------------- B--1-----1--1--1-----1-----1-----1------------------------------------------------- G--2-----2--2--2-----2-----2-----2------------------------------------------------- D--2-----2--2--2-----2-----2-----2------------------------------------------------- A--0-----0--0--0-----0-----0-----0------------------------------------------------- E---------------------------------------------------------------------------------- Fig. 12 (outro) Fade in E---------0------------------------------------------------------------------------------ B--3-------------3---------------------------0---------------------0--------------------- G-----------------------0-------------0-----------------2---------------------2---------- D------------------------------0------------------------2---------------------2---------- A--3-----------------------------------------0---------------------0--------------------- E-----------------------3---------------------------------------------------------------- E---------0------------------------------------------------------------------------------ B--3-------------3---------------------------0---------------------0--------------------- G-----------------------0-------------0-----------------2---------------------2---------- D------------------------------0------------------------2---------------------2---------- A--3-----------------------------------------0---------------------0--------------------- E-----------------------3---------------------------------------------------------------- E---------0------------------------------------------------------------------------------ B--3-------------3---------------------------0---------------------0--------------------- G-----------------------0-------------0-----------------2---------------------2---------- D------------------------------0------------------------2---------------------2---------- A--3-----------------------------------------0---------------------0--------------------- E-----------------------3---------------------------------------------------------------- E---------------------------------------------------------------------------------------- B--------------------------------------------0---------------------0h1p0----------------- G--0-------------0------0-------------0-----------------2----------------------2--------- D---------0--------------------0------------------------2----------------------2--------- A--3-----------------------------------------0---------------------0--------------------- E-----------------------3---------------------------------------------------------------- E---------------------------------------------------------------------------------------- B---------------------------------------------------------------------------------------- G--0-------------0------0-------------0------2-----------------2----------2-------------- D---------0--------------------0------------------------2------------------------2------- A--3-----------------------------------------0------------------------------------------- E-----------------------3---------------------------------------------------------------- E---------0------------------------------------------------------------------------------ B--3-------------3---------------------------0---------------------0--------------------- G-----------------------0-------------0-----------------2---------------------2---------- D------------------------------0------------------------2---------------------2---------- A--3-----------------------------------------0---------------------0--------------------- E-----------------------3---------------------------------------------------------------- E---------0------------------------------------------------------------------------------ B--3-------------3---------------------------0---------------------0--------------------- G-----------------------0-------------0-----------------2---------------------2---------- D------------------------------0------------------------2---------------------2---------- A--3-----------------------------------------0---------------------0--------------------- E-----------------------3---------------------------------------------------------------- E---------0------------------------------------------------------------------------------ B--3-------------3---------------------------0---------------------0--------------------- G-----------------------0-------------0-----------------2---------------------2---------- D------------------------------0------------------------2---------------------2---------- A--3-----------------------------------------0---------------------0--------------------- E-----------------------3---------------------------------------------------------------- E---------------------------------------------------------------------------------------- B---------------------------------------------------------------------------------------- G--0-------------0------0-------------0------2---------------------2------2-------------- D---------0--------------------0------------------------2------------------------2------- A--3-----------------------------------------0------------------------------------------- E-----------------------3---------------------------------------------------------------- E---------------------------------------------------------------------------------------- B--------------------------------------------0---------------------0h1p0----------------- G--0-------------0------0-------------0-----------------2----------------------2--------- D---------0--------------------0------------------------2----------------------2--------- A--3-----------------------------------------0---------------------0--------------------- E-----------------------3---------------------------------------------------------------- E---------0------------------------------------------------------------------------------ B--3-------------3---------------------------0---------------------0--------------------- G-----------------------0-------------0-----------------2---------------------2---------- D------------------------------0------------------------2---------------------2---------- A--3-----------------------------------------0---------------------0--------------------- E-----------------------3---------------------------------------------------------------- E---------0------------------------------------------------------------------------------ B--3-------------3---------------------------0---------------------0--------------------- G-----------------------0-------------0-----------------2---------------------2---------- D------------------------------0------------------------2---------------------2---------- A--3-----------------------------------------0---------------------0--------------------- E-----------------------3---------------------------------------------------------------- Fade out E---------0------------------------------------------------------------------------------ B--3-------------3---------------------------0---------------------0--------------------- G-----------------------0-------------0-----------------2---------------------2---------- D------------------------------0------------------------2---------------------2---------- A--3-----------------------------------------0---------------------0--------------------- E-----------------------3---------------------------------------------------------------- Arrangement: Intro and verse Fig. 1 (x2) Fig. 2 Fig. 3 Fig. 1 Fig. 4 Pre-chorus Fig. 5 Chorus Fig. 6 (x2) Verse Fig. 1 (x2) Fig. 4 Pre-chorus Fig. 7 Chorus Fig. 6 (x2) + Fig. 6 with Electric, clean Fig. 8 Verse Fig. 1 Fig. 2 Interlude Fig. 9 Chorus Fig. 6 Fig. 10 (solo) Fig. 11 Outro Fig. 12








О сайтеАккордыХит-парадПоискУроки ФорумыИщу песню
ПрограммыСвежачок-сПодпискаСтатьи
Яндекс.Метрика