Табулатура Red Hot Chili Peppers | Stadium Arcadium гитара табулатуры уроки тексты песен Red Hot Chili Peppers текст lyrics песня аккорды песни ноты нота электрогитара струна  
   А Б В Г Д Е Ж З И К Л М Н О П Р С Т У Ф Х Ч Ш Ы Э Ю Я       Разные песни
1-9 A B C D E F G H I J K L M N O P Q R S T U V W Y Z      Все исполнители in english

    



группа Red Hot Chili Peppers, Табулатура песни Stadium Arcadium

Продолжаем грести бабос на ботах в Telegram.
Только в этот раз есть вариант автоматизировать это дело, привлекая рефералов. Вы можете заработать если »

Группа: Red Hot Chili Peppers - другие аккорды (395),   о группе (3 статей),   диски (15),   фотографии (113)
Табулатура песни: Stadium Arcadium
Просмотров: 2264
Подобрал: Aaron Yeo




    
Intro/Verse:

e|--------------------------------|--------------------------------|
B|--------------------------------|-------2-------2----------------|
G|-------2-------2----------------|-----2-------2------------------|
D|-----4-------4------------------|---2-------2--------------------|
A|---4-------4--------------------|-0------------------------------|
E|-2------------------------------|--------------------------------|

e|--------------------------------|-0---------------0--------------|
B|--------------------------------|-2---------------0--------------|
G|-------2-------2----------------|-2---------------1--------------|
D|-----4-------4------------------|-2---------------2--------------|
A|---4-------4--------------------|-0---------------2--------------|
E|-2------------------------------|-----------------0--------------|

Продолжаем грести бабос на ботах в Telegram.
Только в этот раз есть вариант автоматизировать это дело, привлекая рефералов. Вы можете заработать если »

Chorus: e|---|---|---|---| B|---|-3-|-2-|---| G|-4-|-2-|-2-|-1-| D|-4-|-0-|-2-|-2-| A|-2-|-0-|-0-|-2-| E|-2-|---|---|-0-| Only part I don't have down is the solo but what can you expect, I'm rushing to get this out first hehe. As you can see, easy power chords and a couple of open chords, that's all.

поиск лекарств
список лекарств






О сайтеАккордыХит-парадПоискУроки ФорумыИщу песню
ПрограммыСвежачок-сПодпискаСтатьи
Яндекс.Метрика