Табулатура H.I.M. | Rip Out The Wings Of A Butterfly гитара табулатуры уроки тексты песен H.I.M. текст lyrics песня аккорды песни ноты нота электрогитара струна  
   А Б В Г Д Е Ж З И К Л М Н О П Р С Т У Ф Х Ч Ш Ы Э Ю Я       Разные песни
1-9 A B C D E F G H I J K L M N O P Q R S T U V W Y Z      Все исполнители in english

    



группа H.I.M., Табулатура песни Rip Out The Wings Of A Butterfly

Группа: H.I.M. - другие аккорды (273),   о группе (2 статей),   диски (5),   фотографии (82)
Табулатура песни: Rip Out The Wings Of A Butterfly
Просмотров: 1795
Подобрал: MotoR (motorbox@mail.ru)




    
"Rip Out The Wings Of A Butterfly"
Guitar I
                                                              
E||--7-------7------7--5-7-5-3-----|-------5-----5-----5-----|
B||------5-------5--------------3--|----3-----3-----3-----3--|
G||--------------------------------|-------------------------|
D||--------------------------------|-------------------------|
A||--------------------------------|-------------------------|
E||--------------------------------|-------------------------|
                                                           
--5-------5------5--3-5-3-2-----|-------7-----7-----7-----|
------3-------3--------------5--|----5-----5-----5-----5--|
--------------------------------|-------------------------|
--------------------------------|-------------------------|
--------------------------------|-------------------------|
--------------------------------|-------------------------|
                                                           
--7-------7------7--5-7-5-3-----|-------5-----5-----5-----|
------5-------5--------------3--|----3-----3-----3-----3--|
--------------------------------|-------------------------|
--------------------------------|-------------------------|
--------------------------------|-------------------------|
--------------------------------|-------------------------|
                                                           
--5-------5------5--3-5-3-2-----|-------7-----7-----7-----|
------3-------3--------------5--|----5-----5-----5-----5--|
--------------------------------|-------------------------|
--------------------------------|-------------------------|
--------------------------------|-------------------------|
--------------------------------|-------------------------|
                                                           
--7-------7------7--5-7-5-3-----|-------5-----5-----5-----|
------5-------5--------------3--|----3-----3-----3-----3--|
--------------------------------|-------------------------|
--------------------------------|-------------------------|
--------------------------------|-------------------------|
--------------------------------|-------------------------|
                                                           
--5-------5------5--3-5-3-2-----|-------7-----7-----7-----|
------3-------3--------------5--|----5-----5-----5-----5--|
--------------------------------|-------------------------|
--------------------------------|-------------------------|
--------------------------------|-------------------------|
--------------------------------|-------------------------|
                                                           
--7-------7------7--5-7-5-3-----|-------5-----5-----5-----|
------5-------5--------------3--|----3-----3-----3-----3--|
--------------------------------|-------------------------|
--------------------------------|-------------------------|
--------------------------------|-------------------------|
--------------------------------|-------------------------|
                                                                             
--5-------5------5--3-5-3-2-----|------------------|----|----|----|----|----|
------3-------3--------------5--|------------------|----|----|----|----|----|
--------------------------------|------------------|----|----|----|----|----|
--------------------------------|------------------|----|----|----|----|----|
--------------------------------|------------------|----|----|----|----|----|
--------------------------------|------------------|----|----|----|----|----|
                                                                             
----|----|----|----||-----|----|----|-----||--7-------7------7--5-7-5-3-----|
----|----|----|----||-----|----|----|-----||------5-------5--------------3--|
----|----|----|----||*----|----|----|----*||--------------------------------|
----|----|----|----||*----|----|----|----*||--------------------------------|
----|----|----|----||-----|----|----|-----||--------------------------------|
----|----|----|----||-----|----|----|-----||--------------------------------|
                                                                              
-------5-----5-----5-----|--5-------5------5--3-5-3-2-----|------------------|
----3-----3-----3-----3--|------3-------3--------------5--|------------------|
-------------------------|--------------------------------|------------------|
-------------------------|--------------------------------|------------------|
-------------------------|--------------------------------|------------------|
-------------------------|--------------------------------|------------------|
                                                                     
----|----|----|----|----|----|----|----|----||-----|----|----|-----||
----|----|----|----|----|----|----|----|----||-----|----|----|-----||
----|----|----|----|----|----|----|----|----||*----|----|----|----*||
----|----|----|----|----|----|----|----|----||*----|----|----|----*||
----|----|----|----|----|----|----|----|----||-----|----|----|-----||
----|----|----|----|----|----|----|----|----||-----|----|----|-----||
                                                           
--7-------7------7--5-7-5-3-----|-------5-----5-----5-----|
------5-------5--------------3--|----3-----3-----3-----3--|
--------------------------------|-------------------------|
--------------------------------|-------------------------|
--------------------------------|-------------------------|
--------------------------------|-------------------------|
                                                    
--5-------5------5--3-5-3-2-----|------------------|
------3-------3--------------5--|------------------|
--------------------------------|------------------|
--------------------------------|------------------|

Продолжаем грести бабос на ботах в Telegram.
Только в этот раз есть вариант автоматизировать это дело, привлекая рефералов. Вы можете заработать если »

--------------------------------|------------------| --------------------------------|------------------| --7-------7------7--5-7-5-3-----|-------5-----5-----5-----| ------5-------5--------------3--|----3-----3-----3-----3--| --------------------------------|-------------------------| --------------------------------|-------------------------| --------------------------------|-------------------------| --------------------------------|-------------------------| --5-------5------5--3-5-3-2-----|------------------|------------------| ------3-------3--------------5--|------------------|------------------| --------------------------------|------------------|------------------| --------------------------------|------------------|------------------| --------------------------------|------------------|------------------| --------------------------------|------------------|------------------| ---------------------|--------------------|---------------------| ---------------------|--------------------|---------------------| ---------------------|--------------------|---------------------| ---------------------|--------------------|---------------------| ---------------------|--------------------|---------------------| --3----------6----5--|----3--1------------|--3----------5----1--| ------------------|---------------------|--------------------| ------------------|---------------------|--------------------| ------------------|---------------------|--------------------| ------------------|---------------------|--------------------| ------------------|---------------------|--------------------| ------------------|--3----------6----5--|----3--1------------| ---------------------|------------------|---------------------| ---------------------|------------------|---------------------| ---------------------|------------------|---------------------| ---------------------|------------------|---------------------| ---------------------|------------------|---------------------| --3----------5----4--|------------------|--3----------6----5--| --------------------|---------------------|------------------| --------------------|---------------------|------------------| --------------------|---------------------|------------------| --------------------|---------------------|------------------| --------------------|---------------------|------------------| ----3--1------------|--3----------5----1--|------------------| ---------------------|--------------------|---------------------| ---------------------|--------------------|---------------------| ---------------------|--------------------|---------------------| ---------------------|--------------------|---------------------| ---------------------|--------------------|---------------------| --3----------6----5--|----3--1------------|--3----------5----4--| ------------------|-------------------|-------------------|-------------------| ------------------|-------------------|-------------------|-------------------| ------------------|-------------------|-------------------|-------------------| ------------------|-------------------|-------------------|-------------------| ------------------|-------------------|-------------------|-------------------| ------------------|--3~---------------|--5~---------------|--7~---------------| |-----|----|----|-----||--7-------7------7--5-7-5-3-----| |-----|----|----|-----||------5-------5--------------3--| |*----|----|----|----*||--------------------------------| |*----|----|----|----*||--------------------------------| |-----|----|----|-----||--------------------------------| |-----|----|----|-----||--------------------------------| -------5-----5-----5-----|--5-------5------5--3-5-3-2-----|------------------| ----3-----3-----3-----3--|------3-------3--------------5--|------------------| -------------------------|--------------------------------|------------------| -------------------------|--------------------------------|------------------| -------------------------|--------------------------------|------------------| -------------------------|--------------------------------|------------------| --7-------7------7--5-7-5-3-----|-------5-----5-----5-----| ------5-------5--------------3--|----3-----3-----3-----3--| --------------------------------|-------------------------| --------------------------------|-------------------------| --------------------------------|-------------------------| --------------------------------|-------------------------| --5-------5------5--3-5-3-2-----|------------------|| ------3-------3--------------5--|------------------|| --------------------------------|------------------|| --------------------------------|------------------|| --------------------------------|------------------|| --------------------------------|------------------||








О сайтеАккордыХит-парадПоискУроки ФорумыИщу песню
ПрограммыСвежачок-сПодпискаСтатьи
Яндекс.Метрика