Басовая табулатура Мастер | Когда Я Умру гитара табулатуры уроки тексты песен Мастер текст lyrics песня аккорды песни ноты нота электрогитара струна  
   А Б В Г Д Е Ж З И К Л М Н О П Р С Т У Ф Х Ч Ш Ы Э Ю Я       Разные песни
1-9 A B C D E F G H I J K L M N O P Q R S T U V W Y Z      Все исполнители

    



группа Мастер, Басовая табулатура песни Когда Я Умру

Группа: Мастер - другие аккорды (23),   о группе (2 статей),   диски (9),   фотографии (4)
Басовая табулатура песни: Когда Я Умру
Просмотров: 791
Подобрал: AntiFrizzz ( antifrizzz1@yandex.ru)




    
Gtr.1 - акустика
Gtr.2 - акустика
Gtr.3 - дисторшн
Размер - 4/4, темп умеренный (в диапазоне 69 bpm) Riff 1:
(0:00-0:27)
                                                         
Gtr.1  е|--------------------------|--------------------------|
       B|--------------------------|--------------------------|
       G|-----------0-----------0--|-----------0-----------0--|
       D|--------4-----------4-----|--------4-----------4-----|
       A|-----2-----------2--------|-----2-----------2--------|
       E|--0-----------0-----------|--0-----------0-----------|
       e|--------------------------|--------------------------|
       B|--------------------------|--------------------------|
       G|-----------0-----------0--|-----------0-----------0--|
       D|--------4-----------4-----|--------4-----------4-----|
       A|-----1-----------1--------|-----1-----------1--------|
       E|--2-----------2-----------|--2-----------2-----------|
       e|--------------------------|--------------------------|
       B|--------------------------|--------------------------|
       G|-----------0-----------0--|-----------0-----------0--|
       D|--------0-----------0-----|--------0-----------0-----|
       A|-----2-----------2--------|-----2-----------2--------|
       E|--3-----------3-----------|--3-----------3-----------|
       e|--------------------------|--------------------------|
       B|--------------------------|--------------------------|
       G|-----------0-----------0--|-----------0-----------0--|
       D|--------2-----------2-----|--------4-----------4-----|
       A|-----3-----------3--------|-----5-----------6--------|
       E|--5-----------5-----------|--7-----------7-----------|
Riff 2:
(0:28-0:57)
Gtr.1 - повторяется Riff 1, добавляется 2-я гитара.
Gtr.2  e|----------2--3------------|----------2--3------------|
       B|-------0------------------|-------0------------------|
       G|--r---------------r-------|--r---------------r-------|
       D|--e---------------e-------|--e---------------e-------|
       A|--s---------------s-------|--s---------------s-------|
       E|--t---------------t-------|--t---------------t-------|
       e|----------2--3------------|----------2--3------------|
       B|-------3------------------|-------3------------------|
       G|--r---------------r-------|--r---------------r-------|
       D|--e---------------e-------|--e---------------e-------|
       A|--s---------------s-------|--s---------------s-------|
       E|--t---------------t-------|--t---------------t-------|
       e|-------------3------------|-------------3------------|
       B|-------0--3---------------|-------0--3---------------|
       G|--r---------------r-------|--r---------------r-------|
       D|--e---------------e-------|--e---------------e-------|
       A|--s---------------s-------|--s---------------s-------|
       E|--t---------------t-------|--t---------------t-------|
       
       e|-------------0------------|----------2--3------------|
       B|----------1---------------|-------3------------------|
       G|--r----2----------r-------|--r---------------r-------|
       D|--e---------------e-------|--e---------------e-------|
       A|--s---------------s-------|--s---------------s-------|
       E|--t---------------t-------|--t---------------t-------|
Riff3
(0:58-1:55)
Gtr.1 - продолжает играть в том же духе (2 раза), добавляется гитара с "дисторшном".Гитара 2 не играет до 33-го такта.
       e|--12----------------------|-----------0--2-----------|
       B|-----12-------------------|--------0-----------------|
       G|--------12--9-------------|-----0--------------------|
       D|---------------9----------|--------------------------|
       A|--------------------------|--7-----------------------|
       E|--------------------------|--------------------------|
       e|--(2).--2-3-5.--3--2--)---|--------------------------|
       B|--------------------------|--2-----------------------|
       G|--------------------------|--------------------------|

Продолжаем грести бабос на ботах в Telegram.
Только в этот раз есть вариант автоматизировать это дело, привлекая рефералов. Вы можете заработать если »

D|--------------------------|--------------------------| A|--------------------------|--------------------------| E|--------------------------|--------------------------| e|------------7.--5.--3--)--|--7.----8-7-5-------------| B|--3.----3-3---------------|--------------------------| G|--------------------------|--------------------------| D|--------------------------|--------------------------| A|--------------------------|--------------------------| E|--------------------------|--------------------------| e|--5.----5-7-8.--7.--5--)--|------2.--------(2)-)-----| B|--------------------------|--5.----------------------| G|--------------------------|--------------------------| D|--------------------------|--------------------------| A|--------------------------|--------------------------| E|--------------------------|--------------------------| Gtr.1..е|--------------------------|--------------------------| B|--------------------------|--------------------------| G|-----------0-----------0--|-----------0-----------0--| D|--------4-----------4-----|--------4-----------4-----| A|-----2-----------2--------|-----2-----------2--------| E|--0-----------0-----------|--0-----------0-----------| Gtr.3 е|--23{32}-26.---(26){32}---------------------------------------------| B|------------------------0{32}---------------------------------------| G|------------------------------------------------------------r--r----| D|------------------------------------------------------------e--e----| A|--------------------------------------------------19.-------s--s----| E|------------------------------18{32}-16{32}-18{32}----------t.-t{32)| |_________________| 3 Gtr.1 e|--------------------------| B|--------------------------| G|-----------0-----------0--| D|--------4-----------4-----| A|-----1-----------1--------| E|--2-----------2-----------|... Gtr.3 e|----------------------------------| B|----------------------------------| G|--r-------------------r-----r-----| D|--e-------------------e-----e-----| A|--s-------------------s-----s-----| E|--t{64}-2--------(2).-t.----t{32}-| Далее играет только 1-я гитара. Outro: Gtr.1 e|--------------------------| B|--------------------------| G|--------------------------| D|--------------------------| A|--------------------------| E|--0-----------------------| Gtr.2 e|--------------------------| B|--------------------------| G|--r-------r----r----------| D|--e-------e----e----------| A|--s--2----s----s----------| E|--t-------t----t--)-------| Gtr.3 e|--12----------------------| B|--------------------------| G|--------------------------| D|--------------------------| A|--------------------------| E|--------------------------| Обозначения: {} - в таких скобках указана длительность меньше 26 ) - ограничение длительности . - нота или пауза с точкой () - залигованная нота Остальное должно быть понятно. Таба списана с нот оригинала, если есть ошибки, то только при переводе в табулатуру. А так красиво звучит. Если что - то вот мыло: antifrizzz1@yandex.ru




Error: Incorrect password!




О сайтеАккордыХит-парадПоискУроки ФорумыИщу песню
ПрограммыСвежачок-сПодпискаСтатьи
Яндекс.Метрика