Табулатура Metallica | My World  (2) гитара табулатуры уроки тексты песен Metallica текст lyrics песня аккорды песни ноты нота электрогитара струна  
   А Б В Г Д Е Ж З И К Л М Н О П Р С Т У Ф Х Ч Ш Ы Э Ю Я       Разные песни
1-9 A B C D E F G H I J K L M N O P Q R S T U V W Y Z      Все исполнители in english

    



группа Metallica, Табулатура песни My World (2)

Работа в Европе для граждан РФ, Украины, СНГ

  • минимальная зарплата $500.
  • виза и контракт на полгода, возможно продление
  • проживание оплачивает работодатель
  • нужен только загранпаспорт
  • оформление 190 €
  • данное предложение - отличная возможность эмигрировать в Европу и закрепиться здесь навсегда.

  • Мы свяжемся с Вами по WhatsApp или Viber и ответим на любые вопросы.
    на нашем сайте можно почитать подробнее »

    Группа: Metallica - другие аккорды (225),   о группе (32 статей),   диски (11),   фотографии (49)
    Табулатура песни: My World (2)
    Просмотров: 1083
    Подобрал: Tero Saikkonen (tsslayer@luukku.com)




        
    Written by Hetfield/Ulrich/Hammett/Rock
    available on "St. Anger" album
    tabbed by Tero Saikkonen from Finland!!!
    tsslayer@luukku.com
    Guitars Dropped-C tuning (Strings on D) 
    (like all songs in "st. Anger" album, except "Dirty Window"
    (D# dropped-C#) "Invisible Kid"(A# dropped-G#)
    and "The Unnamed Feeling"(C dropped-A#))
    INTRO               _______________________________________________
                       |1,2,3    | |4th time                         | |
                       |         | |   P.M.  |__|  |__|  |__|   7 times|
    |----------------------------| |---------------------------------| |
    |----------------------------|o|---------------------------------|o|
    |------------------(3)*------| |---------------------------------| |
    |------------------(0)*------| |---------------------------------| |
    |-0-0---0-0-0-0-----0--------|o|-0-0-0-3-0-0-5-0-0-0-0-0-0-3-5~--|o|
    |-0-0---0-0-0-0-----0--------| |-0-0-0-3-0-0-5-0-0-0-0-0---------| |
                        * Play only 3rd time.
     P.M.__________________|
    |----------------------------------| -2-
    |----------------------------------|  T
    |----------------------------------|  I
    |----------------------------------|  M
    |-0-----3-----5-----0-----0-3-5~---|  E
    |-0-----3-----5-----0--------------|  S
        P.M.  |__|  |__|  |__| 
    |---------------------------------|---------------------------------| -2-
    |---------------------------------|---------------------------------|  T
    |---------------------------------|---------------------------------|  I
    |---------------------------------|---------------------------------|  M
    |-0-0-0-3-0-0-5-0-0-0-0-0-0-3-5~--|-0-----3-----5-----3-----0---3---|  E
    |-0-0-0-3-0-0-5-0-0-0-0-0---------|-0-----3-----5-----3-----0---3---|  S
    VERSE
    ("The motherfuckers got in my head...")
        P.M.  |__|  |__|  |__| 
    |---------------------------------|---------------------------------| -2-
    |---------------------------------|---------------------------------|  T
    |---------------------------------|---------------------------------|  I
    |---------------------------------|---------------------------------|  M
    |-0-0-0-3-0-0-5-0-0-0-0-0-0-3-5~--|-0-----3-----5-----3-----0---3---|  E
    |-0-0-0-3-0-0-5-0-0-0-0-0---------|-0-----3-----5-----3-----0---3---|  S
    ("It_s my world now...")
    GTR I
    |---------------------------------|---------------------------------|
    |---------------------------------|---------------------------------|
    |---------------------------------|---------------------------------|
    |-0-------------------------------|---------------------------------|
    |-0-------------------------------|---------------------------------|  -2-
    |-0-------------------------------|---------------------------------|   T
    |                                 |                                 |   I
    |GTR II played only 2nd time      |                                 |   M
    |---------------------------------|---------------------------------|   E
    |---------------------------------|---------------------------------|   S
    |---------------------------------|---------------------------------|
    |-10------------------------------|---------------------------------|
    |-8-------------------------------|---------------------------------|
    |---------------------------------|---------------------------------|
    ("Mama, why it_s rainin_ in my room...")
        P.M.  |__|  |__|  |__| 
    |---------------------------------|---------------------------------| -4-
    |---------------------------------|---------------------------------|  T
    |---------------------------------|---------------------------------|  I
    |---------------------------------|---------------------------------|  M
    |-0-0-0-3-0-0-5-0-0-0-0-0-0-3-5~--|-0-----3-----5-----3-----0---3---|  E
    |-0-0-0-3-0-0-5-0-0-0-0-0---------|-0-----3-----5-----3-----0---3---|  S
                   ("It_s my world, you can_t have it...")
    |---------------------------------|---------------------------------| -3-
    |---------------------------------|---------------------------------|  T
    |---------------------------------|---------------------------------|  I
    |---------------------------------|---------------------------------|  M
    |-0-----3----5--------------------|---------------------------------|  E
    |-0-----3----5--------------------|---------------------------------|  S
    |---------------------------------|
    |---------------------------------|
    |---------------------------------|
    |---------------------------------|
    |-6-----3----0--------------------|
    |-6-----3----0--------------------|
    CHORUS
                                      ("I_m out of my head, out of my head...")
    |-----------------------------|4|-----------------------------|4|
    |-----------------------------|T|-----------------------------|T|
    
    Узнай ВСЕ о своем друге в ВК или FB
    |-----------------------------|I|-----------------------------|I| |-----------------------------|M|-----------------------------|M| |-3-0----0----0-3-0-5----6---|E|-3-0----0----0-3-0-5----6---|E| |-3-0----0----0-3-0-5----6---|S|-3-0----0----0-3-0-5----6---|S| P.M. |__| |__| |__| |---------------------------------| -4- |---------------------------------| T |---------------------------------| I |---------------------------------| M |-0-0-0-3-0-0-5-0-0-0-0-0-0-3-5~--| E |-0-0-0-3-0-0-5-0-0-0-0-0---------| S VERSE ("Who_s in charge of my head today...") P.M. |__| |__| |__| |---------------------------------|---------------------------------| -2- |---------------------------------|---------------------------------| T |---------------------------------|---------------------------------| I |---------------------------------|---------------------------------| M |-0-0-0-3-0-0-5-0-0-0-0-0-0-3-5~--|-0-----3-----5-----3-----0---3---| E |-0-0-0-3-0-0-5-0-0-0-0-0---------|-0-----3-----5-----3-----0---3---| S ("It_s my time now...") GTR I |---------------------------------|---------------------------------| |---------------------------------|---------------------------------| |---------------------------------|---------------------------------| |-0-------------------------------|---------------------------------| |-0-------------------------------|---------------------------------| -2- |-0-------------------------------|---------------------------------| T | | | I |GTR II played only 2nd time | | M |---------------------------------|---------------------------------| E |---------------------------------|---------------------------------| S |---------------------------------|---------------------------------| |-10------------------------------|---------------------------------| |-8-------------------------------|---------------------------------| |---------------------------------|---------------------------------| ("Look out motherfuckers here i come...") P.M. |__| |__| |__| |---------------------------------|---------------------------------| -4- |---------------------------------|---------------------------------| T |---------------------------------|---------------------------------| I |---------------------------------|---------------------------------| M |-0-0-0-3-0-0-5-0-0-0-0-0-0-3-5~--|-0-----3-----5-----3-----0---3---| E |-0-0-0-3-0-0-5-0-0-0-0-0---------|-0-----3-----5-----3-----0---3---| S ("It_s my world, you can_t have it...") |---------------------------------|---------------------------------| -3- |---------------------------------|---------------------------------| T |---------------------------------|---------------------------------| I |---------------------------------|---------------------------------| M |-0-----3----5--------------------|---------------------------------| E |-0-----3----5--------------------|---------------------------------| S |---------------------------------| |---------------------------------| |---------------------------------| |---------------------------------| |-6-----3----0--------------------| |-6-----3----0--------------------| CHORUS ("I_m out of my head, out of my head...") |-----------------------------|4|-----------------------------|4| |-----------------------------|T|-----------------------------|T| |-----------------------------|I|-----------------------------|I| |-----------------------------|M|-----------------------------|M| |-3-0----0----0-3-0-5----6---|E|-3-0----0----0-3-0-5----6---|E| |-3-0----0----0-3-0-5----6---|S|-3-0----0----0-3-0-5----6---|S| |-----------------------------| -8- |-----------------------------| T |-----------------------------| I |-----------------------------| M |-3-0----0----0-3-0-5----6---| E |-3-0----0----0-3-0-5----6---| S ("Not only do i not know the answer..."/whispering) /half-acoustic/ |-----------------------------| -2- |-----------------------------| T |-----------------------------| I |-----------------------------| M |-----------------------------| E |-3-0----0----0-3-0-5----6

    найти лекарство
    список лекарств






    О сайтеАккордыХит-парадПоискУроки ФорумыИщу песню
    ПрограммыСвежачок-сПодпискаСтатьи
    Яндекс.Метрика