Табулатура Metallica | Invisible Kid гитара табулатуры уроки тексты песен Metallica текст lyrics песня аккорды песни ноты нота электрогитара струна  
   А Б В Г Д Е Ж З И К Л М Н О П Р С Т У Ф Х Ч Ш Ы Э Ю Я       Разные песни
1-9 A B C D E F G H I J K L M N O P Q R S T U V W Y Z      Все исполнители in english

    



группа Metallica, Табулатура песни Invisible Kid

Группа: Metallica - другие аккорды (225),   о группе (32 статей),   диски (11),   фотографии (49)
Табулатура песни: Invisible Kid
Просмотров: 1581
Подобрал: Tero Saikkonen (tsslayer@luukku.com)




    
"Invisible Kid"
by Metallica
written by Hetfield/Ulrich/Hammett/Rock
available on "St. Anger" album
tabbed by Tero Saikkonen from Finland!!!
tsslayer@luukku.com
Guitars Dropped-G# tuning (Strings on A#) 
6=G# 3=C#
5=D# 2=F
4=G# 1=A#
INTRO /RIFF 1
-----|-----------------------------| -12- |-----------|
-----|-----------------------------| T |-----------|
-----|-----------------------------| I |-----------|
-----|-----------------------------| M |-----------|
-----|-0-------------------5-------| E |-----------|
--0--|-0-----3---0---5-0-0------0--| S |-0--0-0-0--|
RIFF 2
|------------------------------------------| -8-
|------------------------------------------| T
|------------------------------------------| I
|------------------------------------------| M
|-0--3----3----5--0----0--3----3----5-0----| E
|-0--3----3----5--0----0--3----3----5-0----| S
RIFF 3 (Verseriff)
|--------------------------------------------------------
|--------------------------------------------------------
|--------------------------------------------------------
|--------------------------------------------------------
|---------8-------0--0-0-0---0-0-0---8-------0---0-0-0---
|-0-0-0------0----0--0-0-0---0-0-0------0----0---0-0-0---
---------------------------------------------------| -6-
---------------------------------------------------| T
---------------------------------------------------| I
----------------------------10---10--/12---10------| M
-0-0-0---8-------0--0-0-0---8----8---/10---8---0---| E
-0-0-0------0----0--0-0-0----------------------0---| S
RIFF 4 (NOTE! =check down of this page)
|-------------------------| -4-
|-------------------------| T
|-------------------------| I
|-------------------------| M
|-3--0--0--3-----0--0--0--| E
|-3--0--0--3-----0--0--0--| S
THEN PLAY:
RIFF 3 /VERSE x 4
RIFF 4 x 8
THEN:
RIFF 5A
|-------------------------| -3- |-------------------------|
|-------------------------| T |-------------------------|
|-------------------------| I |-------------------------|
|--------------------__---| M |----------8--8--9---__---|
|-0--0--0--1--1--2--2__3--| E |-0--0--0--6--6--7--7--8--|
|-0--0--0--1--1--2--2--3--| S |-0--0--0-----------------|
RIFF 5B (4 times)
| |-------------------------| -3- |-------------------------| |
|o|-------------------------| T |-------------------------|o|
| |-------------------------| I |-------------------------| |
| |-------------------------| M |----------8--8--9--9--10-| |
|o|-0--0--0--1--1--2--2--3--| E |-0--0--0--6--6--7--7--8--|o|
| |-0--0--0--1--1--2--2--3--| S |-0--0--0-----------------| |
RIFF 5A
|-------------------------| -3- |-------------------------|
|-------------------------| T |-------------------------|
|-------------------------| I |-------------------------|
|--------------------__---| M |----------8--8--9---__---|
|-0--0--0--1--1--2--2__3--| E |-0--0--0--6--6--7--7--8--|
|-0--0--0--1--1--2--2--3--| S |-0--0--0-----------------|
RIFF 5B
| |-------------------------| -3- |-------------------------| |
|o|-------------------------| T |-------------------------|o|
| |-------------------------| I |-------------------------| |
| |-------------------------| M |----------8--8--9--9--10-| |
|o|-0--0--0--1--1--2--2--3--| E |-0--0--0--6--6--7--7--8--|o|
Узнай ВСЕ о своем друге в ВК или FB
| |-0--0--0--1--1--2--2--3--| S |-0--0--0-----------------| | RIFF 5C | |-------------------------| | |o|-------------------------|o| | |-------------------------| | | |-------------------------| | |o|-0--0--0--1--1--2--2--3--|o| | |-0--0--0--1--1--2--2--3--| | THEN PLAY: RIFF 3 /VERSERIFF x 6 RIFF 4 x 8 RIFF 5A RIFF 5B x 4 RIFF 5A RIFF 5B x 2 RIFF 5C THEN: RIFF 6 |---------------------| -13- |---------------------| T |---------------------| I |---------------------| M |----8--8----8----8/--| E |-0*-----------------| S (^ two guitars, gtr I takes 6 string down and gtr II takes 5 string up) (* Dont play first time, but play all other times) RIFF 7 |--------------------------------------------------------------| |--------------------------------------------------------------| |--------------------------------------------------------------| |-7----------5----7----------5----7-----------5----8---8---8---| |-5----------3----5----------3----5-----------3----6---6---6---| |-0------------------------------------------------------------| RIFF 7B |--------------------------------------------------------------| -9- |--------------------------------------------------------------| T |--------------------------------------------------------------| I |-7----------5----7----------5----7-----------5----8---8---8---| M |-5----0--0--3----5----0--0--3----5-----0--0--3----6---6---6---| E |-0----0--0------------0--0-------------0--0-------------------| S THEN PLAY: RIFF 6 x 8 RIFF 6 WITH OCTAVE HIGHER GTR x 6 RIFF 1 x 4 RIFF 2 x 2 RIFF 3 /VERSERIFF x 5 RIFF 4 x 8 RIFF 5A RIFF 5B x 4 RIFF 5A RIFF 5B x 2 RIFF 5C THEN: RIFF 8 |----------------------|3|---------------| -5- |----------------------|T|---------------| T |----------------------|I|---------------| I THE |----------------------|M|---------------| M END |-0--5----5----5----3--|E|-5------1------| E |-0--0----0----0----0--|S|-5------1------| S TABBED BY T E R O S A I K K O N E N contact me to: t s s l a y e r @ l u u k k u . c o m NOTE!!! Metallica play that riff 4 on live like this: |-------------------------| |-------------------------| |-------------------------| |-------------------------| |-3--0--0--3-----5--0--0--| |-3--0--0--3-----5--0--0--| NOTE!!! Some riffs GTR II plays one octave lower sometimes

лекарство в аптеке
список лекарств

Весенняя охота на уток фото. Весенняя охота на уток в якутии .

aquazon.ru

Йога для начинающих

Практика Йоги. История, философия и практика йоги. Энциклопедия йоги

ом-нараяна.рф








О сайтеАккордыХит-парадПоискУроки ФорумыИщу песню
ПрограммыСвежачок-сПодпискаСтатьи
Яндекс.Метрика