Табулатура Metallica | My Frend of Misery  (2) гитара табулатуры уроки тексты песен Metallica текст lyrics песня аккорды песни ноты нота электрогитара струна  
   А Б В Г Д Е Ж З И К Л М Н О П Р С Т У Ф Х Ч Ш Ы Э Ю Я       Разные песни
1-9 A B C D E F G H I J K L M N O P Q R S T U V W Y Z      Все исполнители in english

    



группа Metallica, Табулатура песни My Frend of Misery (2)

Продолжаем грести бабос на ботах в Telegram.
Только в этот раз есть вариант автоматизировать это дело, привлекая рефералов. Вы можете заработать если »

Группа: Metallica - другие аккорды (225),   о группе (32 статей),   диски (11),   фотографии (49)
Табулатура песни: My Frend of Misery (2)
Просмотров: 1806
Подобрал: -=<!PriesT!>=- (Vanhelan@mail.ru)




    
 Artist: MetallicA
 Title : My Friend Of Mysery
 Album : MetallicA (BlackAlbum)
 Year  : 1991
 Time  : 6:49 
 Intro of guitar
 e ------------|--------|----------|--------||
 b ------------|--------|----------|--------||
 g -------2-2--|----2---|----2-2---|----2---||
 D -------3-3--|----2---|----3-3---|----2---||
 A -------0-0--|----0---|----0-0---|----0---||
 E ------------|--------|----------|--------||
 
 e ----------------------|-------------|--------------|----------------||
 b ----------------------|-------------|--------------|----------------||
 g -------2-2------------|-------------|--------------|----------------||
 D -------3-3---3---3----|----2---2----|-----3---3----|------2---2-----||
 A -------0-0-----5---0--|------3---0--|-------5---0--|--------3---0---||
 E ----------------------|-------------|--------------|----------------||

 e -------------------------|------------------------|
 b -------------------------|------------------------|
 g -------------------------|------------------------|  Repeat 2 - times
 D -------3---3----3---3----|----2---2----2---2s7----|  
 A ---------5---0----5---0--|------3---0----3--------|
 E -------------------------|------------------------|

 The same thing only with words
 e ------------------------------|------------------------------|
 b ------------------------------|------------------------------|
 g ------------------------------|------------------------------|  
 D -------3---3----3---3----3----|----2---2----2---2s(7)-7-7----|  
 A ---------5---0----5---0----5--|------3---0----3--------------|
 E ------------------------------|------------------------------|
 
 Pre-chours:
 e --------------------------------------------||

Продолжаем грести бабос на ботах в Telegram.
Только в этот раз есть вариант автоматизировать это дело, привлекая рефералов. Вы можете заработать если »

b --------------------------------------------|| g --------------------------------------------|| D ----------5----------------5--------5-------|| A ------0-3-------5---7--0-3----------5-7-7s--|| E ------------0-3---5----------0--------------|| Chours: e --------------------------------------------------------------------------|| b --------------------------------------------------------------------------|| g -----------------------2-2----2-4-4-------------------0-0-3-4-------------|| D -----------------2-----2-2----2-4-4---------------0---2-2-3-4-2--2--------|| A -----4-4-0-2-3-4-2-----0-0----0-------4-4-0-2-3-4-0---2-2-1-2-2--2--------|| E -----2-2---------0--0-----------------2-2---------2-0---------0--0--------|| e --------------------------------------------------------------------------|--> b --------------------------------------------------------------------------|--> g -----------------------2-2----2-4-4-------------------0-0-3-4-------------|--> D -----------------2-----2-2----2-4-4---------------0---2-2-3-4-2-----------|--> A -----4-4-0-2-3-4-2-----0-0----0-------4-4-0-2-3-4-0---2-2-1-2-2--3--------|--> E -----2-2---------0--0-----------------2-2---------2-0---------0--0--------|--> e -----------------------------------|| b -----------------------------------|| g --------------------------------2--|| Then you rest D --------------2-----------2-----3--|| A ------3-------2---3-------2-----0--|| E ------0-0-0-0-0-0-0-0-0-0-0---0----|| e ----------------0^-------|-----------------0--|| b -------------3--3^-3-----|-----------------1--|| g -----------2---------2---|-----------0h2-2----|| Repeat 4 - times D -------2h3---------------|-----0h2-2----------|| A -----0-------------------|---0----------------|| E -------------------------|--------------------|| The End

искать в аптеке
список лекарств






О сайтеАккордыХит-парадПоискУроки ФорумыИщу песню
ПрограммыСвежачок-сПодпискаСтатьи
Яндекс.Метрика