Аккорды Эпидемия | Эпилог гитара табулатуры уроки тексты песен Эпидемия текст lyrics песня аккорды песни ноты нота электрогитара струна  
   А Б В Г Д Е Ж З И К Л М Н О П Р С Т У Ф Х Ч Ш Ы Э Ю Я       Разные песни
1-9 A B C D E F G H I J K L M N O P Q R S T U V W Y Z      Все исполнители

    



группа Эпидемия, Аккорды песни Эпилог

Группа: Эпидемия - другие аккорды (138),   о группе (9 статей),   диски (6),   фотографии (18)
Аккорды песни: Эпилог
Просмотров: 2884
Прислал: Streem (streem@comch.ru)




    
Группа:Эпидемия
Песня:Эпилог
    Итак, сначали вступает акустическая гитара, а играется следующее:                                                                       
E||------------3----5----|--6------------5--3--|--1---------1---------|
B||---------3------------|---------------------|---------1-------1----|
G||----------------------|---------------------|----------------------|
D||----------------------|---------------------|----------------------|
A||----------------------|---------------------|----------------------|
E||--3-------------------|---------------------|--1-------------------|
                                                                  
  |--1--------5--------|--3---------3---------|---------------------|
  |--------------------|----------------------|--4------------3--1--|
  |--------------------|---------3-------3----|---------------------|
  |--0-----------------|----------------------|---------------------|
  |--------------------|----------------------|--3------------------|
  |--------------------|----------------------|---------------------|
                                                                   
  |---------------------|------------3----5----|--6------------5--3--|
  |---------------------|---------3------------|---------------------|
  |--2------------3--2--|----------------------|---------------------|
  |---------------------|----------------------|---------------------|
  |---------------------|----------------------|---------------------|
  |--1------------------|--3-------------------|---------------------|
    
                                                                   
  |--1---------1---------|--1--------5--------|--3---------3---------|
  |---------1-------1----|--------------------|----------------------|
  |----------------------|--------------------|---------3-------3----|
  |----------------------|--0-----------------|----------------------|
  |----------------------|--------------------|----------------------|
  |--1-------------------|--------------------|----------------------|
                                                               
  |---------------------|---------------------|------------------|
  |--4------------3--1--|---------------------|------------------|
  |---------------------|--2------------3--2--|------------------|
  |---------------------|---------------------|------------------|
  |--3------------------|---------------------|------------------|
  |---------------------|--1------------------|------------------|
   А далее на электрухе:
    Eb|-----------------|-----------------|-----------------|--------------------|
    Hb|-----------------|-----------------|-----------------|--------------------|
    Bb|-----------------|-----------------|-----------------|--------------------|
    Db|-----------------|-----------------|-----------------|-8-----8-----8------|
    Ab|-6-----6-----6---|-2-----2-----2---|-4-----4-----4---|-6-6-6-6-6-6-6-6----|
    Eb|-4-4-4-4-4-4-4-4-|-0-0-0-0-0-0-0-0-|-2-2-2-2-2-2-2-2-|--------------------|
        p.m.  p.m.  p.m.  p.m.  p.m.  p.m.  p.m.  p.m.  p.m.  p.m.  p.m.  p.m. 
   играется несколько раз, а потом опять акустика:
  
  |------------------|------------------|------------------|--------------------|
  |------------------|------------------|------------------|--------3--------4--|
  |------------------|------------------|------------------|--0--3-----0--3-----|
  |------------------|------------------|------------------|--------------------|
  |------------------|------------------|------------------|--------------------|
  |------------------|------------------|------------------|--------------------|
                                                              
  |-------------------|--------------------|--1-----------------|
  |----------1--3--4--|--------3--------4--|-----4--3--1--3--4--|
  |-------0-----------|--0--3-----0--3-----|--------------------|
  |----1--------------|--------------------|--------------------|
  |----------0--------|--------------------|--1-----------------|
  |-------------------|--------------------|-----------1--------|
                                                              
  |--------------------|-------------------|--------------------|
  |--------3--------4--|----------1--3--4--|--------3--------4--|
  |--0--3-----0--3-----|-------0-----------|--0--3-----0--3-----|
  |--------------------|----1--------------|--------------------|
  |--------------------|----------0--------|--------------------|
  |--------------------|-------------------|--------------------|
                                                               
  |--1-----------------|--------------------|--------------------|
  |-----4--3--1--3--4--|--------3--4--3--1--|--4--3--1--------1--|
  |--------------------|--0--3--------------|-----------2--3-----|
  |--------------------|--------------------|--------------------|
  |--1-----------------|--------------------|--3-----------------|
  |-----------1--------|--------------------|-----------1--------|
                                                                     
  |-------------------------|-----------------------|------------------|
  |-------------------------|--------------1--------|------------------|
  |-------0-----3--0-----0--|--------2-----2--------|------------------|
  |----1-----1--------1-----|-----3-----3-----------|------------------|
  |-------------------------|-----------------------|------------------|

Продолжаем грести бабос на ботах в Telegram.
Только в этот раз есть вариант автоматизировать это дело, привлекая рефералов. Вы можете заработать если »

|-------------------------|--1-----------1--------|------------------| Потом опять электруха, ну а потом уже акустика: |------------------|--------------------------|-------------------------| |------------------|--------------3-----------|-------------------------| |------------------|-----3--0--------3--0--3--|----0--------3--0-----0--| |------------------|-----------0--------------|-------1-----------1-----| |------------------|--------------------------|----------1--------------| |------------------|--3-----------------------|-------------------------| |--------------------------|-----1--------5-----------|-------------------------| |--------------1-----------|--------3--------6-----6--|-------------------------| |-----2-----------2-----2--|-----------2--------7-----|-------------3--0-----0--| |--------3-----------3-----|--0-----------------------|----5--------------1-----| |-----------3--------------|--------------------------|-------6-----------------| |--1-----------------------|--------------------------|----------6--------------| |--------------3-----------|--------------------------| |-----4-----------4-----4--|--------------1-----------| |--------5-----------5-----|-----2-----------2-----2--| |-----------5--------------|--------3-----------3-----| |--3-----------------------|-----------3--------------| |--------------------------|--1-----------------------| |--------------------------|-------------------------|--------------------------| |--------------3-----------|-------------------------|--------------1-----------| |-----3--0--------3--0--3--|----0--------3--0-----0--|-----2-----------2-----2--| |-----------0--------------|-------1-----------1-----|--------3-----------3-----| |--------------------------|----------1--------------|-----------3--------------| |--3-----------------------|-------------------------|--1-----------------------| |-----1--------5-----------|-------------------------|--------------3-----------| |--------3--------6-----6--|-------------------------|-----4-----------4-----4--| |-----------2--------7-----|-------------3--0-----0--|--------5-----------5-----| |--0-----------------------|----5--------------1-----|-----------5--------------| |--------------------------|-------6-----------------|--3-----------------------| |--------------------------|----------6--------------|--------------------------| |--------------------------|--------------------------|-------------------------| |--------------1-----------|--------------3-----------|-------------------------| |-----2-----------2-----2--|-----3--0--------3--0--3--|----0--------3--0-----0--| |--------3-----------3-----|-----------0--------------|-------1-----------1-----| |-----------3--------------|--------------------------|----------1--------------| |--1-----------------------|--3-----------------------|-------------------------| |--------------------------|-----1--------5-----------|-------------------------| |--------------1-----------|--------3--------6-----6--|-------------------------| |-----2-----------2-----2--|-----------2--------7-----|-------------3--0-----0--| |--------3-----------3-----|--0-----------------------|----5--------------1-----| |-----------3--------------|--------------------------|-------6-----------------| |--1-----------------------|--------------------------|----------6--------------| |--------------3-----------|--------------------------| |-----4-----------4-----4--|--------------1-----------| |--------5-----------5-----|-----2-----------2-----2--| |-----------5--------------|--------3-----------3-----| |--3-----------------------|-----------3--------------| |--------------------------|--1-----------------------| |--------------------------|-------------------------|--------------------------| |--------------3-----------|-------------------------|--------------1-----------| |-----3--0--------3--0--3--|----0--------3--0-----0--|-----2-----------2-----2--| |-----------0--------------|-------1-----------1-----|--------3-----------3-----| |--------------------------|----------1--------------|-----------3--------------| |--3-----------------------|-------------------------|--1-----------------------| |-----1--------5-----------|-------------------------|--------------3-----------| |--------3--------6-----6--|-------------------------|-----4-----------4-----4--| |-----------2--------7-----|-------------3--0-----0--|--------5-----------5-----| |--0-----------------------|----5--------------1-----|-----------5--------------| |--------------------------|-------6-----------------|--3-----------------------| |--------------------------|----------6--------------|--------------------------| |--------------------------|| |--------------1-----------|| |-----2-----------2-----2--|| |--------3-----------3-----|| |-----------3--------------|| |--1-----------------------|| Вот и все! Всем спасибо, все свободны!








О сайтеАккордыХит-парадПоискУроки ФорумыИщу песню
ПрограммыСвежачок-сПодпискаСтатьи
Яндекс.Метрика