Аккорды Christie | Gotta Be Free (J. Christie) гитара табулатуры уроки тексты песен Christie текст lyrics песня аккорды песни ноты нота электрогитара струна  
   А Б В Г Д Е Ж З И К Л М Н О П Р С Т У Ф Х Ч Ш Ы Э Ю Я       Разные песни
1-9 A B C D E F G H I J K L M N O P Q R S T U V W Y Z      Все исполнители

    



группа Christie, Аккорды песни Gotta Be Free (J. Christie)

Группа: Christie - другие аккорды (47),   о группе (27 статей),   диски (28),   фотографии (130)
Аккорды песни: Gotta Be Free (J. Christie)
Просмотров: 1635
Подобрал: Sabbath, Alla (sabbath54@mail.ru; allawoly@rambler.ru)




    
GOTTA BE FREE (J Christie)
1--------------------|
2-765-2-0------------|
3---------2----------|
4--------------------|
5--------------------|
6--------------------|

1--------------------|--------------------|---------------------|----------------|
2--------------------|--------------------|---------------------|----------------|
3--------------------|--------------------|---------------------|----------------|
4-4-2----------------|-4-2----------------|-4-2-----------------|-4-2------------|
5-----4-2-0----------|----4--2-0----------|-----4-2-0-----------|-----4-2-0------|
6--------------------|--------------------|---------------------|----------------|
GOTTA BE FREE (J Christie) 
A                                       Hm          
I came from the big bright city, that's where I came from
A                                  Hm                    A
I've been on the road a long time, been such a long time
Cm#                       Hm
'Cos I'm just a natural travelin' man
Cm#                Hm
Living my life the best that I can
E
I don't want no chains on me
            Fm#
I gotta be free
D           Hm   E
I gotta be free
Guess that I was born a rover, guess I was
Can't stay in one place too long, not too long
Man in a suitcase, travelin' light
Just like a flower, I'm growin' wild
I don't want no chains on me
I gotta be free
I gotta be free
A-F  
F           A
I gotta be free

Продолжаем грести бабос на ботах в Telegram.
Только в этот раз есть вариант автоматизировать это дело, привлекая рефералов. Вы можете заработать если »

F A Fm# I gotta be free, free A Fm# To do as I please A Fm# Free, free A Fm# Like a bird in a tree E I don't want no chains on me Fm# I gotta be free D Hm E I gotta be free Please don't ask me where I'm going, I don't know I've just got to keep on rolling, keep on rolling 'Cos I'm just a natural travelin' man Living my life the best that I can I don't want no chains on me E Fm# I gotta be free D F Oh can't you see, Fm# D I gotta be free-eee A Hm I gotta be free-eee E Fm# I gotta be free-eee .....








О сайтеАккордыХит-парадПоискУроки ФорумыИщу песню
ПрограммыСвежачок-сПодпискаСтатьи
Яндекс.Метрика