Аккорды Белая Гвардия | Алый Парус гитара табулатуры уроки тексты песен Белая Гвардия текст lyrics песня аккорды песни ноты нота электрогитара струна  
   А Б В Г Д Е Ж З И К Л М Н О П Р С Т У Ф Х Ч Ш Ы Э Ю Я       Разные песни
1-9 A B C D E F G H I J K L M N O P Q R S T U V W Y Z      Все исполнители

    



группа Белая Гвардия, Аккорды песни Алый Парус

Продолжаем грести бабос на ботах в Telegram.
Только в этот раз есть вариант автоматизировать это дело, привлекая рефералов. Вы можете заработать если »

Группа: Белая Гвардия - другие аккорды (40),   о группе (1 статей),   диски (1),   фотографии (3)
Аккорды песни: Алый Парус
Просмотров: 2940




    

Белая Гвардия - Алый Парус

 вся песня в фа-диез миноре, хотя аккорды у Мошкова например
 почему-то в ми миноре...

 Я тут пока не все подобрал, разберу получше - поправлю
                                                      h
|----5--5-5-4-5--4/9-5-7---5-7---4--4/1--4/2---|---------------------------
|----------------^^^^^^^зто играется ----------|---------------------------
|-----------------------довольно невнятно------|---------------------------
|----------------------------------------------|---------------------------
|----------------------------------------------|---------------------------
|----------------------------------------------|---------------------------




|-5--4^5-/(12)----5--4^5-/-12--10----12--10--------------------------------
|-----идет слайд вверх------------9---------9--9---?????????---------------
|-----и теряется где-то----------------------------------------------------
|-----в районе 10го лада---------------------------------------------------
|-----(по-моему)-----------------------------------------------------------
|--------------------------------------------------------------------------




|------0-2-4-4^5^4-2----|
|--2-3------------------|
|-----------------------|
|-----------------------|
|-----------------------|
|-----------------------|

 Tabbed by Dmoroz 30.04.98


    

искать в аптеке
список лекарств






О сайтеАккордыХит-парадПоискУроки ФорумыИщу песню
ПрограммыСвежачок-сПодпискаСтатьи
Яндекс.Метрика