Табулатура Эпидемия | Эпилог  (3) гитара табулатуры уроки тексты песен Эпидемия текст lyrics песня аккорды песни ноты нота электрогитара струна  
   А Б В Г Д Е Ж З И К Л М Н О П Р С Т У Ф Х Ч Ш Ы Э Ю Я       Разные песни
1-9 A B C D E F G H I J K L M N O P Q R S T U V W Y Z      Все исполнители

    



группа Эпидемия, Табулатура песни Эпилог (3)

Группа: Эпидемия - другие аккорды (138),   о группе (9 статей),   диски (6),   фотографии (18)
Табулатура песни: Эпилог (3)
Просмотров: 1290
Подобрал: DIC (DIC.VOLONTER@MAIL.RU)




    
ВСТУПЛЕНИЕ
1||---3-5-6-5-3-------1-5-3----3--------------------|
2||-3------------6-6---------------4----------------|
3||---------------5-5--------3---3---5-3-2-3-2------|
4||--------------------------------------------5----|
5||-------------------------------------------------|
6||-------------------------------------------------|
1||---3-5-6-5-3-------1-5-3----3--------------------|
2||-3------------6-6---------------4----------------|
3||---------------5-5--------3---3---5-3-2----------|
4||-------------------------------------------------|
5||-------------------------------------------------|
6||-------------------------------------------------|
Все аккорды ставятся c баре.
Если кто не знает, как они выглядят то ниже все расписано.   
G Eb   F    Dm    Eb    Cm     F     G
1||--3--|--3--|--1--|--5--|--3--|--3--|--1--|--3--| 2 раза
2||--3--|--4--|--1--|--6--|--4--|--4--|--1--|--3--|
3||--3--|--3--|--2--|--7--|--3--|--5--|--2--|--3--|
4||--5--|--5--|--3--|--7--|--5--|--5--|--3--|--5--|
5||--5--|--6--|--3--|--5--|--6--|--3--|--3--|--5--|
6||--3--|--3--|--1--|--5--|--3--|--3--|--1--|--3--|
(КВИНТЫ)
1||---------------|---------------|---------------|
2||---------------|---------------|---------------|
3||---------------|---------------|---------------|
4||---------------|-5-----5-----5-|---------------|
5||-5-----5-----5-|-3-3-3-3-3-3-3-|-3-----3-----3-|
6||-3-3-3-3-3-3-3-|---------------|-1-1-1-1-1-1-1-|
1||---------------|---------------|---------------|
2||---------------|---------------|---------------|
3||---------------|---------------|---------------|
4||-7-----7-----7-|-5-----5-----5-|-5-----5-----5-|
5||-5-5-5-5-5-5-5-|-3-3-3-3-3-3-3-|-3-3-3-3-3-3-3-|
6||---------------|---------------|---------------|
1||---------------|---------------|
2||---------------|---------------| 
3||---------------|---------------|  2 раза
4||---------------|---------------|
5||-3-----3-----3-|-5-----5-----5-|
6||-1-1-1-1-1-1-1-|-3-3-3-3-3-3-3-|

(01:17)
На 3 ладу лучше поставить баре (так легче)
1||------------------------|-------------------------|
2||----3-----4-----3.6-4-3-|----3-----4--6-4-3-------|
3||---3-----3-----3--------|---3-----3---------5-3-2-|  2 раза
4||------------------------|-------------------------|
5||-------6----------------|-------6-----------------|
6||-3-----------3----------|-3-----------------------|
1||------------------------------|
2||----3--4--3----4--3-----------|
3||--3---------5-------5---2-3-5-|
4||------------------------------|
5||------------------------------|
6||-3----------------------------|
1||--------------------|

Продолжаем грести бабос на ботах в Telegram.
Только в этот раз есть вариант автоматизировать это дело, привлекая рефералов. Вы можете заработать если »

2||--------------------| 3||-----3--3-----------| 4||-------5--5-------7-| 5||---6------------8---| 6||-3------------5-----| (SOLO) 1||---3-5-6-5-3-------1-5-3----3--------------------| 2||-3------------6-6---------------4----------------| 3||---------------5-5--------3---3---5-3-2--7--5----| 4||-----------------------------------------------7-| 5||-------------------------------------------------| 6||-------------------------------------------------| 1||---3-5-6-5-3-------1-5-3----3--------------------| 2||-3------------6-6---------------4----------------| 3||---------------5-5--------3---3---5-3-2----------| 4||-------------------------------------------------| 5||-------------------------------------------------| 6||-------------------------------------------------| 1||---3-5-6-5-6-8-6-5------8-5-6-5------------------| 2||-3----------------8-6-----------8----------------| 3||----------------------7----------7-8-------------| 4||-------------------------------------------------| 5||-------------------------------------------------| 6||-------------------------------------------------| 1||-4-5--13----11---10---8---5---6-6-6--------------| 2||---------11---10---10---10-----------------------| 3||-------------------------------------------------| 4||-------------------------------------------------| 5||-------------------------------------------------| 6||-------------------------------------------------| 1||5-6-15-13----------------10---------------------------------| 2||----------16-15-13-11-13----13-11-10-----10-11-13-11-10-----| 3||--------------------------------------12----------------12--| 4||------------------------------------------------------------| 5||------------------------------------------------------------| 6||------------------------------------------------------------| (перебором) G Eb F Dm Eb 1||------3-----|------3-----|------1-----|------5-----|------3-----| 2||---3-----3--|---4-----4--|---1-----1--|---6-----6--|---4-----4--| 3||--3-3---3-3-|--3-3---3-3-|--2-2---2-2-|--7-7---7-7-|--3-3---3-3-| 4||------------|------------|------------|------------|------------| 5||-5----------|-6----------|-3----------|-5----------|-6----------| 6||------------|------------|------------|------------|------------| Cm F G 1||------3-----|------1-----|------3-----| 2||---4-----4--|---1-----1--|---3-----3--| 3||--5-5---5-5-|--2-2---2-2-|--3-3---3-3-| 4||------------|------------|------------| 5||-3----------|-3----------|-5----------| 6||------------|------------|------------|








О сайтеАккордыХит-парадПоискУроки ФорумыИщу песню
ПрограммыСвежачок-сПодпискаСтатьи
Яндекс.Метрика