Табулатура Metallica | Harvester Of Sorrow гитара табулатуры уроки тексты песен Metallica текст lyrics песня аккорды песни ноты нота электрогитара струна  
   А Б В Г Д Е Ж З И К Л М Н О П Р С Т У Ф Х Ч Ш Ы Э Ю Я       Разные песни
1-9 A B C D E F G H I J K L M N O P Q R S T U V W Y Z      Все исполнители in english

    



группа Metallica, Табулатура песни Harvester Of Sorrow

Группа: Metallica - другие аккорды (225),   о группе (32 статей),   диски (11),   фотографии (49)
Табулатура песни: Harvester Of Sorrow
Просмотров: 1773
Подобрал: -=<!PriesT!>=- (Vanhelan@mail.ru)




    
                                                          Repeat it 7 - times
 e --------------------|----------------------|------------------------------------------||
 b --------------------|----------------------|------------------------------------------||
 g --------------------|----------------------|---------------0--------------------------||
 D ---------4s3-2------|-2---------4s3-2------|-------3-2-------3-2------3-0------0---0--||
 A ---5s4-2-2s1-0-5s4--|-0---5s4-2-2s1-0-5s4--|-----2-------2----------2--------0--------||
 E ---3s2-0-------3s2--|-0---3s2-0-------3s2--|---0-------0----------0--------3-----1----||
                          
                          Riff 1.2   
 e ---------------------|-----------------------------------|
 b ---------------------|-----------------------------------|
 g ---------------------|*----------------------------------|
 D ----------4-3-2------|*---------------------4s3-2--------|
 A ----5-4-2-2-1-0-5-4--|--2--2-2-2--2-2-5s4-2-2s1-0---5s4--|
 E ----3-2-0-1-----3-2--|--0--0-0-0--0-0-3s2-0-------0-3s2--|
                                                                         (end of Riff 1.2)
    ------------------------------------   -----------------------------
   |                               1, 2 | | 3                           |
 e --------------------------------------|-------------------------------||----
 b --------------------------------------|-------------------------------||----
 g -------------------------------------*|-------------------------------||----
 D ------------------------4s3-2--------*|---------------------3-3-3-3---||-2--
 A ----3--3-3-3--3-3-5s4-2-2s1-0---5s4---|-3--3-3-3--3---5-4---1-1-1-1-5-||-2--
 E ----1--1-1-1--1-1-3s2-0-------0-3s2---|-1--1-1-1--1-0-3-2-0---------3-||-0--

 e --------------------------------------------------||
 b --------------------------------------------------||
 g --------------------------------------------------||
 D --------------------------------------------------||
 A ---------0---------0-------------------1----------||
 E ---0-1-2-----0-1-2-----2-1-0-----0-1-2-----2-1-0--||

 e --------------------------------------||
 b --------------------------------------||
 g --------------------------------------||
 D ----------2--2--2-2-----------2--2-2--|| Play it 3 times (Igray eto 3 raza)
 A ----------2--2--2-2-------1---2--2-2--||
 E ----0-1-2-0--0--0-0-0-1-2---0-0--0-0--||

 e -----------------------------------||
 b -----------------------------------||
 g -----------------------------------||
 D -----0---5--5-5------------2--2-2--||
 A -------5-5--5-5--------1---2--2-2--||
 E ---2---3-3--3-3--0-1-2---0-0--0-0--||
Узнай ВСЕ о своем друге в ВК или FB
This part comes after the solo (Eto 4ast idet posle Solo) e -------------------------------| b -------------------------------| g -------------------------2-3---| Play Rif 1.2 Then Repeat this Riff | D ----2----------0-2-3-3-5-------| <----------------------------------| A ----2--0h1p0-3-----------------| E ----0--------------------------| e -------------------------------------------|| b -------------------------------------------|| g -------------------------------------------|| D ----3h2p0-2-3-2-0--------------------------|| A ------------------3h2p0---2--2-2-2--2-2----|| E --------------------------0--0-0-0--0-0----|| e -------------------------------------------|| b -------------------------------------------|| g -------------------------------------------|| D -----3h2p0-2-3-5-3-3h2p0-------------------|| A --------------------------3--3-3-3--3-3----|| E --------------------------1--1-1-1--1-1----|| e -------------------------------------------|| b -------------------------------------------|| g -------------------------------------------|| D ----3h2p0-2-3-2-0--------------------------|| A ------------------3h2p0---2--2-2-2--2-2----|| E --------------------------0--0-0-0--0-0----|| e -------------------------------------------|| b -------------------------------------------|| g -------------------------------------------|| D -----3h2p0-2-3-5-3-3h2p0----3-------3------|| A ----------------------------3-------3------|| E -------------------------0--1--0-0--1------|| The End Of Song calld Harvester Of Sorrow If you had some Better ideas please write me to my ICQ:287-707-531 or to e-mail Vanhelan@mail.ru Your host Alexandr Makarov Or -==- Esli U vas est kokieta somnenija pisqte mne na ICQ:287-707-531 ili na moy e-mail Vanhelan@mail.ru Vas sluga po gitaram Makarov Alexandr ili prosto -==-

поиск лекарств
список лекарств

Гильзы для проводов

Продажа провода СИП, арматуры для СИП. Доставка, отмотка, низкие цены

techelectro.ru








О сайтеАккордыХит-парадПоискУроки ФорумыИщу песню
ПрограммыСвежачок-сПодпискаСтатьи
Яндекс.Метрика