Аккорды Christie | Magic Highway (V. Elmes)  (2) гитара табулатуры уроки тексты песен Christie текст lyrics песня аккорды песни ноты нота электрогитара струна  
   А Б В Г Д Е Ж З И К Л М Н О П Р С Т У Ф Х Ч Ш Ы Э Ю Я       Разные песни
1-9 A B C D E F G H I J K L M N O P Q R S T U V W Y Z      Все исполнители

    



группа Christie, Аккорды песни Magic Highway (V. Elmes) (2)

Группа: Christie - другие аккорды (47),   о группе (27 статей),   диски (28),   фотографии (130)
Аккорды песни: Magic Highway (V. Elmes) (2)
Просмотров: 1113
Подобрал: Sabbath, Alla (sabbath54@mail.ru; allawoly@rambler.ru)




    
Magic Way
Вступление:A D A
1-0---0--0-2---------|-0--0---0-2---------|-0---0---0-2-0-------|----------------|
2---3--3-------------|--3---3-------------|---3---3-------------|----------------|
3--------------------|--------------------|---------------------|----------------|
4--------------------|--------------------|---------------------|----------------|
5--------------------|--------------------|---------------------|----------------|
6--------------------|--------------------|---------------------|----------------|

1-2-0----------------|-2-0----------------|-2-0-----------------|-2-0------------|
2-----3-2-0----------|-----3-2-0----------|-----3-2-0-----------|-----3-2-0------|
3-----------2--------|-----------2--------|-----------2---------|-----------2----|
4--------------------|--------------------|---------------------|----------------|
5--------------------|--------------------|---------------------|----------------|
6--------------------|--------------------|---------------------|----------------|
   C-G-D                 E-D-E                     C-G-D             E-D-E
1--------------------|--------------------|---------------------|----------------|
2-0-1-0--------------|-0------------------|---------------------|----------------|
3-------2------------|---2-0--------------|-2-0-----------------|-0--------------|
4--------------------|--------------------|-----4---------------|---4-2----------|
5--------------------|--------------------|---------------------|----------------|
6--------------------|--------------------|---------------------|----------------|
1--------------------|--------------------|---------------------|----------------|

2--------------------|--------------------|---------------------|----------------|
3--------------------|--------------------|---------------------|----------------|
4--------------------|--------------------|---------------------|----------------|
5-3-2----------------|--------------------|---------------------|----------------|
6-----3-0------------|--------------------|---------------------|----------------|
  E     
 На шоссе волшебном встречу
  G      D   A
 Друга своего.
  E      
 Он был королем Египта -

Продолжаем грести бабос на ботах в Telegram.
Только в этот раз есть вариант автоматизировать это дело, привлекая рефералов. Вы можете заработать если »

G D A Но все в прошлом у него E A D A Оборвалась словно нитка E A E G-D-A-E Жизнь на полпути E D A Мир, любовь ушли, чтоб вовсе E Больше не прийти. C-G-D G-D-A На шоссе волшебном встречу Друга своего. Был он раньше датским принцем - Но все в прошлом у него. Когда Скагеррак обрушил Воды на песок, Он в своем был замке плача, Закрывшись на замок. По шоссе вперед По шоссе вперед По шоссе вперед... На шоссе волшебном встречу Друга своего. Он простой был парень Томми - Но все в прошлом у него. Все смотреть собрались, как он Исчезнет словно тень. Но не знали, как он рад был Все бросить в этот день.








О сайтеАккордыХит-парадПоискУроки ФорумыИщу песню
ПрограммыСвежачок-сПодпискаСтатьи
Яндекс.Метрика