Табулатура Christie | I Believe In You (J. Christie) гитара табулатуры уроки тексты песен Christie текст lyrics песня аккорды песни ноты нота электрогитара струна  
   А Б В Г Д Е Ж З И К Л М Н О П Р С Т У Ф Х Ч Ш Ы Э Ю Я       Разные песни
1-9 A B C D E F G H I J K L M N O P Q R S T U V W Y Z      Все исполнители

    



группа Christie, Табулатура песни I Believe In You (J. Christie)

Группа: Christie - другие аккорды (47),   о группе (27 статей),   диски (28),   фотографии (130)
Табулатура песни: I Believe In You (J. Christie)
Просмотров: 923
Подобрал: Sabbath (sabbath54@mail.ru)




    
I believe in you 
Intro:
1--------------------|--------------------|---------------------|----------------|
2--------------------|--------------------|---------------------|----------------|
3--------------------|--------------------|---------------------|----------------|
4------0---------0---|----0--0-2----------|---------------------|----------------|
5--0-2---2-0---0---2-|-0-2-2--------0-2---|---------------------|----------------|
6------------2-------|------------2-------|---------------------|----------------|

1--------------------|--------------------|---------------------|----------------|
2--------------------|--------------------|---------------------|----------------|
3--------------------|--------------------|---------------------|----------------|
4------0---------0---|----0--0-2----------|---------------------|----------------|
5--0-2---2-0---0---2-|-0-2-2--------0-2---|---------------------|----------------|
6------------2-------|------------2-------|---------------------|----------------|

1--------------------|--------------------|---------------------|----------------|
2--------------------|--------------------|---------------------|----------------|
3--------------------|--------------------|---------------------|----------------|
4--------------------|--------------------|---------------------|----------------|
5-2-2-2-2-2-2-2-2----|-0-0-0-0------------|-2-2-2-2-2-2-2-2-----|-0-0-0-0--------|
6--------------------|---------0-0-0-0----|---------------------|--------0-0-0-0-|

1--------------------|--------------------|---------------------|----------------|
2--------------------|--------------------|---------------------|----------------|
3--------------------|--------------------|---------------------|----------------|
4--------------------|--------------------|---------------------|----------------|
5-2-2-2-2-2-2-2-2----|-0-0-0-0------------|-2-2-2-2-2-2-2-2-----|-0-0-0-0--------|
6--------------------|---------0-0-0-0----|---------------------|--------0-0-0-0-|
H              A - E
Я подумал о том,
H                 A - E
Что сказала ты мне.
H                A - E
Все вертелось оно
H               A - E
У меня в голове.
A    G     D    E
Не хочу критиковать
A  G      E
Я твои слова.
A    G       D     E
Это прaвда, знаешь ты - 
A    G      E
Верю я в тебя.
Рассуждали с тобой
О теченьи времен,
О путях мировых,
О любви неземной.

Продолжаем грести бабос на ботах в Telegram.
Только в этот раз есть вариант автоматизировать это дело, привлекая рефералов. Вы можете заработать если »

Ты сказала, не вольны Мы в своей судьбе. Этой лжи не говори - Верю я тебе. SOLO 1: 1-----0--------------|-----0--------------|---------------------|----------------| 2-0-2---4------------|-0-2---4------------|-2-0-----------------|-2-0------------| 3--------------------|--------------------|-----2-1-------------|-----2-1--------| 4--------------------|--------------------|---------------------|----------------| 5--------------------|--------------------|---------------------|----------------| 6--------------------|--------------------|---------------------|----------------| 1-----0-2------------|-----0-2------------|---------------------|---------------| 2-0-2----------------|-0-2----------------|-2-0-----------------|-2-0-----------| 3--------------------|--------------------|-----2-1-------------|-----2-1-------| 4--------------------|--------------------|---------------------|---------------| 5--------------------|--------------------|---------------------|---------------| 6--------------------|--------------------|---------------------|---------------| Рассуждали с тобой О теченьи времен, О путях мировых, О любви неземной. A G D E Не хочу критиковать A G E Я твои слова. A G D E Это прaвда, знаешь ты - A G E Верю я в тебя. SOLO 2: 1-----0--------------|-----0--------------|---------------------|----------------| 2-0-2---4------------|-0-2---4------------|-2-0-----------------|-2-0------------| 3--------------------|--------------------|-----2-1-------------|-----2-1--------| 4--------------------|--------------------|---------------------|----------------| 5--------------------|--------------------|---------------------|----------------| 6--------------------|--------------------|---------------------|----------------| 1-----2-1------------|-----2-1------------|---------------------|---------------| 2-2-4----------------|-2-4----------------|-4-2-0---------------|-4-2-0---------| 3--------------------|--------------------|-------3-------------|-------3-------| 4--------------------|--------------------|---------------------|---------------| 5--------------------|--------------------|---------------------|---------------| 6--------------------|--------------------|---------------------|---------------|








О сайтеАккордыХит-парадПоискУроки ФорумыИщу песню
ПрограммыСвежачок-сПодпискаСтатьи
Яндекс.Метрика