Табулатура Christie | If Only (J. Christie) гитара табулатуры уроки тексты песен Christie текст lyrics песня аккорды песни ноты нота электрогитара струна  
   А Б В Г Д Е Ж З И К Л М Н О П Р С Т У Ф Х Ч Ш Ы Э Ю Я       Разные песни
1-9 A B C D E F G H I J K L M N O P Q R S T U V W Y Z      Все исполнители

    



группа Christie, Табулатура песни If Only (J. Christie)

Группа: Christie - другие аккорды (47),   о группе (27 статей),   диски (28),   фотографии (130)
Табулатура песни: If Only (J. Christie)
Просмотров: 756
Подобрал: Sabbath, Alla (sabbath54@mail.ru; allawoly@rambler.ru)




    
If only
1--------------------|
2--------------------|
3--------------------|
4-2-0----------------|    Am
5-----3-2-0----------|
6--------------------|
Am          E         Am  Dm
Ах, если б не была ты далеко,
G                           C     E
Я б, конечно, смог к тебе прийти.
Am           E           Am    Dm
Ах, если б только мог найти слова,
G                         C  E
Я б сказал - и ты бы поняла.
F            E
Ах, если б, ах, если б
Am            Dm
Был дан нам путь
G           E           Am
Ах, если б, Я знал всю суть,
        F               G     C  E
Но нет, Увы, лишь песню я пою тебе.
1--------------------|
2--------------------|
3--------------------|
4-2-0----------------|
5-----3-2-0----------|
6--------------------|
1-0-5-8-7-5-4-7-5-3-1|-3-5-3-5-10-7-5-3-0-1-0-1-0|
2--------------------|---------------------------|
3--------------------|---------------------------|
4--------------------|---------------------------|
5--------------------|---------------------------|
6--------------------|---------------------------|

1-0-5-8-7-5-4-7-5-3-1|-3-5-3-5-10-7-5-3-0-1-0-1-3|
2--------------------|---------------------------|
3--------------------|---------------------------|
4--------------------|---------------------------|
5--------------------|---------------------------|
6--------------------|---------------------------|
F            E
Ах, если б, ах, если б
Am            Dm
Был дан нам путь

Продолжаем грести бабос на ботах в Telegram.
Только в этот раз есть вариант автоматизировать это дело, привлекая рефералов. Вы можете заработать если »

G E Am Ах, если б, Я знал всю суть, F G C E Но нет, Увы, лишь песню я пою тебе. 1--------------------| 2--------------------| 3--------------------| 4-2-0----------------| 5-----3-2-0----------| 6--------------------| Ах, если б крылья были, прилетел Я к тебе и был с тобой всю жизнь. И время было б со мной за одно, От тебя бы не был далеко. Ах, если б, ах, если б Был дан нам путь Ах, если б,Я знал всю суть, Hо нет, увы, лишь песню я пою тебе. 1--------------------| 2--------------------| 3--------------------| 4-2-0----------------| 5-----3-2-0----------| 6--------------------| 1-0-5-8-7-5-4-7-5-3-1|-3-5-3-5-10-7-5-3-0-1-0-1-0| 2--------------------|---------------------------| 3--------------------|---------------------------| 4--------------------|---------------------------| 5--------------------|---------------------------| 6--------------------|---------------------------| 1-0-5-8-7-5-4-7-5-3-1|-3-5-3-5-10-7-5-3-0-1-0-1-3| 2--------------------|---------------------------| 3--------------------|---------------------------| 4--------------------|---------------------------| 5--------------------|---------------------------| 6--------------------|---------------------------| F E Ах, если б, ах, если б Am Dm Был дан нам путь G E Am Ах, если б, Я знал всю суть, F G C F E Но нет, Увы, лишь песню я пою тебе. тебе








О сайтеАккордыХит-парадПоискУроки ФорумыИщу песню
ПрограммыСвежачок-сПодпискаСтатьи
Яндекс.Метрика