Табулатура Эпидемия | Эпилог  (2) гитара табулатуры уроки тексты песен Эпидемия текст lyrics песня аккорды песни ноты нота электрогитара струна  
   А Б В Г Д Е Ж З И К Л М Н О П Р С Т У Ф Х Ч Ш Ы Э Ю Я       Разные песни
1-9 A B C D E F G H I J K L M N O P Q R S T U V W Y Z      Все исполнители

    



группа Эпидемия, Табулатура песни Эпилог (2)

Группа: Эпидемия - другие аккорды (138),   о группе (9 статей),   диски (6),   фотографии (18)
Табулатура песни: Эпилог (2)
Просмотров: 1114
Подобрал: Кирилл (kirill_troy@pochta.ru)




    
  Intro
    Moderately Q=130
   4/4
    Gtr I
    Q.    E   Q   Q    H.       E   E    Q.    E   Q    Q     H     H
||------------5---7--|-8--------7---5--|-3---------3--------|-------7-----|
||o-------5----------|-----------------|-------3--------3---|-8-----------|
||-------------------|-----------------|--------------------|-------------|
||-------------------|-----------------|--------------------|-------------|
||o-0----(0)-(0)-----|-8-------(8)-(8)-|--------------------|-7----(7)----|
||-------------------|-----------------|-3----(3)-(3)--(3)--|-------------|
                                     1.               2.
   Q.    E   Q    Q     H.      E E   H.      E E     W
|---------------------|-------------|--------------||------|
|-10--------10--------|-6-------5-3-|-------------o||------|
|---------------------|-------------|-4-------5-4--||-4----|
|-------10-------10---|-------------|--------------||------|
|--8----(8)-(8)--(8)--|-5-----------|-------------o||------|
|---------------------|-------------|-3------------||-3----|
   Theme 1
    A5              F5             G5             E5
    Gtr II
    W               W              W              W
    |               |              |              |
    /               /              /              /
    Gtr III
    Q.   E  Q  Q    H.      E  E   Q.   E Q  Q    H    H
||-------------7--|-8-------7----|--------------|------7---|
||o--------10-----|-----------10-|-8------8-----|-8--------|
||-------9--------|--------------|------7----7--|----------|
||----------------|--------------|--------------|----------|
||o---------------|--------------|--------------|----------|
||----------------|--------------|--------------|----------|
  F5             D5            G5
  W              W             W
  |              |             |
  /              /             /
  Q.   E Q  Q    H.      E E   W
|-5------5-----|-------------|-------||
|--------------|-6-------5-3-|------o||
|------5----5--|-------------|-4-----||
|--------------|-------------|-------||
|--------------|-------------|------o||
|--------------|-------------|-------||
    Q.     E  Q   Q     H.           E  E
||----------------7---|-8------------7----|
||o----------10-------|----------------10-|
||---------9----------|-------------------|
||--------------------|-------------------|
||o-------------------|-------------------|
||--------------------|-------------------|
|
|   Gtr II
|      PM|    PM|   PM     PM|   PM|    PM
|   E  E E E  E E E E   E  E E E E E E  E
||--------------------|-------------------|
||o-------------------|-------------------|
||--------------------|-------------------|
||--------------------|-------------------|
||o-7------7------7---|-3------3-----3----|
||--5--5-5-5--5-5-5-5-|-1--1-1-1-1-1-1--1-|
  Q.     E Q   Q     H       H
|------------------|---------7--------|
|-8--------8-------|-8----------------|
|--------7-----7---|------------------|
|------------------|------------------|
|------------------|------------------|
|------------------|------------------|
|
|    PM|   PM|   PM    PM|   PM|   PM
| E  E E E E E E E   E E E E E E E E
|------------------|------------------|
|------------------|------------------|
|------------------|------------------|
|------------------|-9-----9-----9----|
|-5------5-----5---|-7-7-7-7-7-7-7-7--|
|-3--3-3-3-3-3-3-3-|------------------|
  Q.     E Q   Q     H.           E E   W
|-5--------5-------|------------------|------------------||
|------------------|-6------------5-3-|-----------------o||
|--------5-----5---|------------------|-4----------------||
|------------------|------------------|------------------||
|------------------|------------------|-----------------o||
|------------------|------------------|------------------||
|
|    PM|   PM|   PM     PM|   PM|   PM    PM|   PM|   PM
| E  E E E E E E E   E  E E E E E E E   E E E E E E E E
|------------------|------------------|------------------||
|------------------|------------------|-----------------o||
|------------------|------------------|------------------||
|------------------|-7------7-----7---|------------------||
|-3------3-----3---|-5--5-5-5-5-5-5-5-|-5-----5-----5---o||
|-1--1-1-1-1-1-1-1-|------------------|-3-3-3-3-3-3-3-3--||
   Interlude
   3/4
    Gtr I
    E  E   E  E  E   E    E  E   E  E  E   E
||---------0---------1--|--------------0---1--|
||o----1---------1------|-----------3---------|
||--2-(2)-(2)-2-(2)-(2)-|--------2------------|
||----------------------|----3----------------|
||o---------------------|-5-(5)-(5)-----------|
||----------------------|-----------3-(3)-(3)-|
  E  E   E  E  E   E    E  E   E  E  E   E
|--------0---------1--|-3--1---0-----0---1---||
|----1---------1------|-----------3---------o||
|-2-(2)-(2)-2-(2)-(2)-|----------------------||
|---------------------|----------------------||
|---------------------|-3-(3)-(3)-----------o||
|---------------------|-----------3-(3)-(3)--||
  E  E   E  E  E   E    E  E   E  E  E   E
|--------0--1--0------|-1--0----------------|
|----1-------------3--|--------3--0--1---3--|
|-2-(2)-(2)-----------|---------------------|
|-----------3-(3)-(3)-|-0-(0)-(0)-----------|
|---------------------|---------------------|
|---------------------|-----------3-(3)-(3)-|
 4/4
  E E E E E E E E   E E E E Q  Q
|-----------------|-----------------|
|---------1-------|---------3-------|
|-----2-----2---2-|-----4---4-------|
|---3---3-----3---|---5---5---------|
|-3---------------|-----------------|
|-----------------|-3-------3-------|
 Theme 1 - Repeat
  Gtr IV
  Q.      E  Q   Q      H.           E  E   Q.     E Q   Q     H       H
|--------------------|--------------------|------------------|-----------------|
|--------------------|--------------------|------------------|-----------------|
|--------------------|--------------------|------------------|-----------------|
|------------7---9---|-10------------9--7-|-5--------5-------|-5-------9-------|
|--------/7----------|--------------------|--------5-----5---|-----------------|
|--------------------|--------------------|------------------|-----------------|
|
| Gtr III
| Q.      E  Q   Q      H.           E  E   Q.     E Q   Q     H       H
|----------------7---|--8------------7----|------------------|---------7-------|
|-----------10-------|-----------------10-|-8--------8-------|-8---------------|
|---------9----------|--------------------|--------7-----7---|-----------------|
|--------------------|--------------------|------------------|-----------------|
|--------------------|--------------------|------------------|-----------------|
|--------------------|--------------------|------------------|-----------------|
|
| Gtr II
|    PM|     PM|   PM      PM|   PM|    PM     PM|   PM|   PM    PM|   PM|   PM
| E  E E  E  E E E E    E  E E E E E E  E   E  E E E E E E E   E E E E E E E E
|--------------------|--------------------|------------------|-----------------|
|--------------------|--------------------|------------------|-----------------|
|--------------------|--------------------|------------------|-----------------|
|--------------------|--------------------|------------------|-9-----9-----9---|
|-7-------7------7---|--3------3-----3----|-5------5-----5---|-7-7-7-7-7-7-7-7-|
|-5--5-5--5--5-5-5-5-|--1--1-1-1-1-1-1--1-|-3--3-3-3-3-3-3-3-|-----------------|
  Q.     E Q   Q     H.           E E   H.            E E
|------------------|------------------|-------------------|
|------------------|------------------|-------------------|
|------------------|------------------|-------------------|
|-7--------7-------|------------------|--------------10-9-|
|------------------|-8------------7-5-|-------------------|
|--------8-----8---|------------------|-7-----------------|
|
| Q.     E Q   Q     H.           E E   W
|-5--------5-------|------------------|-------------------|
|------------------|-6------------5-3-|-------------------|
|--------5-----5---|------------------|-4-----------------|
|------------------|------------------|-------------------|
|------------------|------------------|-------------------|
|------------------|------------------|-------------------|
|
|    PM|   PM|   PM     PM|   PM|   PM     PM|   PM|    PM
| E  E E E E E E E   E  E E E E E E E   E  E E E E E  E E
|------------------|------------------|-------------------|
|------------------|------------------|-------------------|
|------------------|------------------|-------------------|
|------------------|-7------7-----7---|-------------------|
|-3------3-----3---|-5--5-5-5-5-5-5-5-|-5------5------5---|
|-1--1-1-1-1-1-1-1-|------------------|-3--3-3-3-3-3--3-3-|
   ~~~
   Q     +E    E  Q   Q     H.           E  E
|---------------------7---|-8------------7----|
|----------------10-------|----------------10-|
|-------------/9----------|-------------------|
|-10----(10)\-------------|-------------------|
|-------------------------|-------------------|
|-------------------------|-------------------|
|
|  Q.          E  Q   Q     H.           E  E
|---------------------7---|-8------------7----|
|----------------10-------|----------------10-|
|--------------9----------|-------------------|
|-------------------------|-------------------|
|-------------------------|-------------------|
|-------------------------|-------------------|
|
|     PM|         PM|   PM     PM|   PM|    PM
|  E  E   E    E  E E E E   E  E E E E E E  E
|-------------------------|-------------------|
|-------------------------|-------------------|
|-------------------------|-------------------|
|-------------------------|-------------------|
|--7-----------7------7---|-3------3-----3----|
|--5--5---5----5--5-5-5-5-|-1--1-1-1-1-1-1--1-|
  Q.     E Q   Q     H       H
|------------------|---------7-------|
|-8--------8-------|-8---------------|
|--------7-----7---|-----------------|
|------------------|-----------------|
|------------------|-----------------|
|------------------|-----------------|
|
| Q.     E Q   Q     H       H
|------------------|---------7-------|
|-8--------8-------|-8---------------|
|--------7-----7---|-----------------|
|------------------|-----------------|
|------------------|-----------------|
|------------------|-----------------|
|
|    PM|   PM|   PM    PM|   PM|   PM
| E  E E E E E E E   E E E E E E E E
|------------------|-----------------|
|------------------|-----------------|
|------------------|-----------------|
|------------------|-9-----9-----9---|
|-5------5-----5---|-7-7-7-7-7-7-7-7-|
|-3--3-3-3-3-3-3-3-|-----------------|
                     ~~                 ~~
  Q.     E Q   Q     H.           E E   H.           Q
|-5--------5-------|------------------|------------------|
|------------------|-6----------------|------------------|
|--------5-----5---|--------------9-7-|------------------|
|------------------|------------------|-9----------------|
|------------------|------------------|------------------|
|------------------|------------------|------------------|
|
| Q.     E Q   Q     H.           E E   W
|-5--------5-------|------------------|------------------|
|------------------|-6------------5-3-|------------------|
|--------5-----5---|------------------|-4----------------|
|------------------|------------------|------------------|
|------------------|------------------|------------------|
|------------------|------------------|------------------|
|
|    PM|   PM|   PM     PM|   PM|   PM     PM|   PM|   PM
| E  E E E E E E E   E  E E E E E E E   E  E E E E E E E
|------------------|------------------|------------------|
|------------------|------------------|------------------|
|------------------|------------------|------------------|
|------------------|-7------7-----7---|------------------|
|-3------3-----3---|-5--5-5-5-5-5-5-5-|-5------5-----5---|
|-1--1-1-1-1-1-1-1-|------------------|-3--3-3-3-3-3-3-3-|
 Guitar Solo
  Q.      E  Q    Q      H.            E  E
|---------------------|---------------------|
|----------------12---|-13------------12-13-|
|-----------14--------|---------------------|
|--------14-----------|---------------------|
|---------------------|---------------------|
|---------------------|---------------------|
|
| Q.      E  Q    Q      H.            E  E
|-----------------7---|--8-------------7----|
|-----------10--------|------------------10-|
|---------9-----------|---------------------|
|---------------------|---------------------|
|---------------------|---------------------|
|---------------------|---------------------|
|
|    PM|     PM|    PM      PM|   PM|     PM
| E  E E  E  E E  E E    E  E E E E E  E  E
|---------------------|---------------------|
|---------------------|---------------------|
|---------------------|---------------------|
|---------------------|---------------------|
|-7-------7-------7---|--3------3------3----|
|-5--5-5--5--5-5--5-5-|--1--1-1-1-1-1--1--1-|
   Q.        E  S  S  E  Q      Q    Q    Q    Q
|----------------------------|----------------------|
|-13b15r====13-12h13p12------|-----------15---12----|
|-----------------------14---|-12-------------------|
|----------------------------|------14--------------|
|----------------------------|----------------------|
|----------------------------|----------------------|
|
|  Q.        E  Q        Q      H         H
|----------------------------|------------7---------|
|--8------------8------------|--8-------------------|
|------------7-----------7---|----------------------|
|----------------------------|----------------------|
|----------------------------|----------------------|
|----------------------------|----------------------|

Продолжаем грести бабос на ботах в Telegram.
Только в этот раз есть вариант автоматизировать это дело, привлекая рефералов. Вы можете заработать если »

| | PM| PM---| PM PM| PM| PM | E E E E E E E E E E E E E E E E |----------------------------|----------------------| |----------------------------|----------------------| |----------------------------|----------------------| |----------------------------|--9------9-------9----| |--5---------5-----------5---|--7-7--7-7--7-7--7-7--| |--3----3-3--3--3-----3--3-3-|----------------------| ~~~ |--3--| Q. S S S Q Q H. E E E E E E E E E E |----------------------------|---------------------|-15----13----12-----------| |-13------12h13p12-----------|---------------12-13-|----12----12----12-15-12--| |------------------14--------|---------------------|--------------------------| |-----------------------14---|-15------------------|--------------------------| |----------------------------|---------------------|--------------------------| |----------------------------|---------------------|--------------------------| | | Q. E Q Q H. E E W |--5----------------5--------|---------------------|--------------------------| |----------------------------|--6-------------5--3-|--------------------------| |----------5-------------5---|---------------------|--4-----------------------| |----------------------------|---------------------|--------------------------| |----------------------------|---------------------|--------------------------| |----------------------------|---------------------|--------------------------| | | PM| PM| PM PM| PM| PM PM| PM| PM | E E E E E E E E E E E E E E E E E E E E E E E E |----------------------------|---------------------|--------------------------| |----------------------------|---------------------|--------------------------| |----------------------------|---------------------|--------------------------| |----------------------------|--7------7------7----|--------------------------| |--3-------3-------------3---|--5--5-5-5-5-5--5--5-|--5--------5--------5-----| |--1--1-1--1--------1-1--1-1-|---------------------|--3--3--3--3--3--3--3--3--| E E E E +Q E E Q. +E Q S S E |--------------------------|-15pb17r====(15)-13---12h13p12-| |-12h13-13-13-(13)---12-13-|-------------------------------| |--------------------------|-------------------------------| |--------------------------|-------------------------------| |--------------------------|-------------------------------| |--------------------------|-------------------------------| | | Q. E Q Q H. E E |---------------------7----|--8--------------------7-------| |--------------10----------|----------------------------10-| |-----------9--------------|-------------------------------| |--------------------------|-------------------------------| |--------------------------|-------------------------------| |--------------------------|-------------------------------| | | PM| PM-| PM PM| PM| PM | E E E E E E E E E E E E E E E E |--------------------------|-------------------------------| |--------------------------|-------------------------------| |--------------------------|-------------------------------| |--------------------------|-------------------------------| |--7--------7---------7----|--3-----------3--------3-------| |--5--5--5--5---5--5--5--5-|--1-----1-1---1---1-1--1-----1-| ~~~ H +Q E E Q +E +E Q Q |-------------------------|-------------------------------| |-15--------(15)\---13-15-|-15b17====(15)r(15)-13---12----| |-------------------------|-------------------------------| |-------------------------|-------------------------------| |-------------------------|-------------------------------| |-------------------------|-------------------------------| | | Q. E Q Q H H |-------------------------|---------------------7---------| |--8----------8-----------|--8----------------------------| |---------7----------7----|-------------------------------| |-------------------------|-------------------------------| |-------------------------|-------------------------------| |-------------------------|-------------------------------| | | PM| PM--| PM PM| PM| PM | E E E E E E E E E E E E E E E E |-------------------------|-------------------------------| |-------------------------|-------------------------------| |-------------------------|-------------------------------| |-------------------------|--9--------------9--------9----| |--5------5----------5----|--7-----7---7----7---7-7--7-7--| |--3--3-3-3---3---3--3--3-|-------------------------------| H. E E Q +E +E S S E Q |---------------------|----------------------------------| |-13------------12-13-|-13b15====(13)r(13)-12h13p12-10---| |---------------------|----------------------------------| |---------------------|----------------------------------| |---------------------|----------------------------------| |---------------------|----------------------------------| | | Q. E Q Q H. E E |--5--------5---------|----------------------------------| |---------------------|--6---------------------------5-3-| |---------5------5----|----------------------------------| |---------------------|----------------------------------| |---------------------|----------------------------------| |---------------------|----------------------------------| | | PM| PM| PM PM| PM---| PM | E E E E E E E E E E E E E E E E |---------------------|----------------------------------| |---------------------|----------------------------------| |---------------------|----------------------------------| |---------------------|--7--------------7------------7---| |--3------3------3----|--5-----5---5----5---5-----5--5-5-| |--1--1-1-1-1-1--1--1-|----------------------------------| T T T T T T T T |--3--| |--3--| |--3--| |--3--| |--3--| |--3--| |--3--| |--3--| S S S S S S S S S a S S S S S S S S S S S S S S S |----------------------------------------------------------------------------| |-20p13p12-20p13p12-18p13p12h13-18p13p12-17p13p12-17p13p12-15p13p12-15p13p12-| |----------------------------------------------------------------------------| |----------------------------------------------------------------------------| |----------------------------------------------------------------------------| |----------------------------------------------------------------------------| | | W |----------------------------------------------------------------------------| |----------------------------------------------------------------------------| |--4-------------------------------------------------------------------------| |----------------------------------------------------------------------------| |----------------------------------------------------------------------------| |----------------------------------------------------------------------------| | | W |----------------------------------------------------------------------------| |----------------------------------------------------------------------------| |----------------------------------------------------------------------------| |----------------------------------------------------------------------------| |--5-------------------------------------------------------------------------| |--3-------------------------------------------------------------------------| H.=H S S S S S S S S S S S S S S S S |--------------------------------------------------| |-13p=12h13p12h13p12h13p12h13p12h13p12h13p12h13p12-| |--------------------------------------------------| |--------------------------------------------------| |--------------------------------------------------| |--------------------------------------------------| | | +W |--------------------------------------------------| |--------------------------------------------------| |-(4)----------------------------------------------| |--------------------------------------------------| |--------------------------------------------------| |--------------------------------------------------| | | W |--------------------------------------------------| |--------------------------------------------------| |--------------------------------------------------| |--------------------------------------------------| |--5-----------------------------------------------| |--3-----------------------------------------------| Slower Q=100 In Time Q=130 > +W +H. Q |-------------|---------------| |-(12)--------|-(12)----------| |-------------|---------------| |-------------|---------------| |-------------|---------------| |-------------|---------------| | | > | +W +H. Q |-------------|---------------| |-------------|---------------| |--(4)--------|--(4)----------| |-------------|---------------| |-------------|---------------| |-------------|---------------| | | > | +W +H. Q |-------------|---------------| |-------------|---------------| |-------------|---------------| |-------------|---------------| |--(5)--------|--(5)----------| |--(3)--------|--(3)----------| Outro Gtr I E E E E E E E E E E E E E E E E E E E E E E E E E E E E E E E E |-----------0-------|-------------------|------------------|---------7-------| |----1--------1---1-|----------1--------|----------3-------|-----------8---8-| |------2--------2---|----2-------2----2-|----4-------4---4-|---9---------9---| |--------2----------|------3-------3----|------5-------5---|-----9-----------| |-0-----------------|--------3----------|--------5---------|-7-----7---------| |-------------------|-1-----------------|-3----------------|-----------------| | | Gtr V | Q. E Q Q H. E E Q. E Q Q H H |---------------7---|-8------------7----|------------------|---------7-------| |----------10-------|----------------10-|-8--------8-------|-8---------------| |--------9----------|-------------------|--------7-----7---|-----------------| |-------------------|-------------------|------------------|-----------------| |-------------------|-------------------|------------------|-----------------| |-------------------|-------------------|------------------|-----------------| E E E E E E E E E E E E E E E E E E E E E E E E |------------------|------------------|------------------| |----------1-------|----------6-------|----------3-------| |----2-------2---2-|----7-------7---7-|----4-------4---4-| |------3-------3---|------7-------7---|------5-------5---| |--------3---------|-5------5---------|--------5---------| |-1----------------|------------------|-3----------------| | | Q. E Q Q H. E E H. E E |-5--------5-------|------------------|------------------| |------------------|-6------------5-3-|------------------| |--------5-----5---|------------------|-4------------5-4-| |------------------|------------------|------------------| |------------------|------------------|------------------| |------------------|------------------|------------------| E E E E E E E E E E E E E E E E ||------------0-------|-------------------| ||o----1--------1---1-|----------1--------| ||-------2--------2---|----2-------2----2-| ||---------2----------|------3-------3----| ||o-0-----------------|--------3----------| ||--------------------|-1-----------------| | | Q. E Q Q H. E E ||----------------7---|-8------------7----| ||o----------10-------|----------------10-| ||---------9----------|-------------------| ||--7-----------------|-------------------| ||o-------------------|-------------------| ||--------------------|-------------------| E E E E E E E E E E E E E E E E |------------------|---------7--------| |----------3-------|-----------8---8--| |----4-------4---4-|---9---------9----| |------5-------5---|-----9------------| |--------5---------|-7-----7----------| |-3----------------|------------------| | | Q. E Q Q H H |------------------|---------7--------| |-8--------8-------|-8----------------| |--------7-----7---|------------------| |------------------|------------------| |------------------|------------------| |------------------|------------------| E E E E E E E E E E E E E E E E E E E E E E E E 3x |------------------|------------------|-------------------|| |----------1-------|----------6-------|----------3-------o|| |----2-------2---2-|----7-------7---7-|----4-------4---4--|| |------3-------3---|------7-------7---|------5-------5----|| |--------3---------|-5------5---------|--------5---------o|| |-1----------------|------------------|-3-----------------|| | | Q. E Q Q H. E E H. E E 3x |-5--------5-------|------------------|-------------------|| |------------------|-6------------5-3-|------------------o|| |--------5-----5---|------------------|-4------------5-4--|| |------------------|------------------|-------------------|| |------------------|------------------|------------------o|| |------------------|------------------|-------------------|| E E E E E E E E E E E E E E E E E E E E E E E E E E E E E E E E |---------0-------|-------------------|-----------------|---------7-------| |---1-------1---1-|-----------1-------|---------3-------|-----------8---8-| |-----2-------2---|-----2-------2---2-|---4-------4---4-|---9---------9---| |-------2---------|-------3-------3---|-----5-------5---|-----9-----------| |-0---------------|---------3---------|-------5---------|-7-----7---------| |-----------------|--1----------------|-3---------------|-----------------| | | W +H. Q W W |-----------------|-------------------|-----------------|-----------------| |-----------------|-------------------|-----------------|-----------------| |-----------------|-------------------|-----------------|-----------------| |-7---------------|-(7)---------------|-----------------|-----------------| |-----------------|-------------------|-----------------|-----------------| |-----------------|-------------------|-----------------|-----------------| E E E E E E E E E E E E E E E E E E E E E E E E |-----------------|-----------------|-----------------*| |---------1-------|---------6-----6-|---------3-------*| |---2-------2---2-|---7-------7-----|---4-------4---4-*| |-----3-------3---|-----7-------7---|-----5-------5---*| |-------3---------|-5-----5---------|-------5---------*| |-1---------------|-----------------|-3---------------*|








О сайтеАккордыХит-парадПоискУроки ФорумыИщу песню
ПрограммыСвежачок-сПодпискаСтатьи
Яндекс.Метрика