Табулатура Эпидемия | Чёрный Маг гитара табулатуры уроки тексты песен Эпидемия текст lyrics песня аккорды песни ноты нота электрогитара струна  
   А Б В Г Д Е Ж З И К Л М Н О П Р С Т У Ф Х Ч Ш Ы Э Ю Я       Разные песни
1-9 A B C D E F G H I J K L M N O P Q R S T U V W Y Z      Все исполнители

    



группа Эпидемия, Табулатура песни Чёрный Маг

Группа: Эпидемия - другие аккорды (138),   о группе (9 статей),   диски (6),   фотографии (18)
Табулатура песни: Чёрный Маг
Просмотров: 1295
Подобрал: Кирилл (kirill_troy@pochta.ru)




    

   Riff 3
                       1.,2.,3.
    Am                  G
    Gtr V
    W                   W
    |                   |
    /                   /
                           PM
    E E E E  E E  E E   E  E  E E E E  E E  4x
||--------------------|---------------------||
||o-------------------|-----------8---10-8-o||
||------9--------10---|-9----10-9---7-------||
||----7---7-10-7----7-|---10----------------||
||o-7-----------------|--------------------o||
||--------------------|---------------------||
|
|   PM----------------------------------------
|   E E E E  E E  E E   E  E  E E E E  E E  4x
||--------------------|---------------------||
||o-------------------|--------------------o||
||--------------------|---------------------||
||--------------------|---------------------||
||o----------8-8--8-8-|-3--3--3-3----------o||
||--5-5-5-5-----------|-----------3-3--3-3--||
  4.
  G
  W                   W
  |
  /
  E  E  E E E E E E   E E E E E E E E
|-------------------|------------------|
|-------------------|------------------|
|-9----10-9-7---9-7-|-5---7-5-4---5-4--|
|---10--------9-----|---7-------5------|
|-------------------|------------------|
|-------------------|------------------|
|
|-----------------------------------|
| E  E  E E E E E E   E E E E E E E E
|-------------------|------------------|
|-------------------|------------------|
|-------------------|------------------|
|-------------------|------------------|
|-3--3--3-3---------|------------------|
|-----------3-3-3-3-|-5-5-5-5-3-3-3-3--|
                     Riff 4
                                       1.,2.                3.
                      PM------------|
  E E E E E E E E     E E E E E E E E   E E E E E E E E  3x E E E E E E E E
|-----------------||------------------|------------------||-----------------|
|-------3---------||o-----------------|-------3---------o||-------3---------|
|---4-5---5-4---4-||--2-2-2-2-2-2-2-0-|---4-5---5-4---4--||---4-5---5-4---4-|
|-3-----------5---||--2-2-2-2-2-2-2-0-|-3-----------5----||-3-----------5---|
|-----------------||o-0-0-0-0-0-0-0---|-----------------o||-----------------|
|-----------------||------------------|------------------||-----------------|
|
|                     PM------------|
| E E E E E E E E     E E E E E E E E   E E E E E E E E  3x E E E E E E E E
|-----------------||------------------|------------------||-----------------|
|-------3---------||o-----------------|-------3---------o||-----5-6-5-------|
|---4-5---5-4---4-||--2-2-2-2-2-2-2-0-|---4-5---5-4---4--||---7-------7-4-7-|
|-3-----------5---||--2-2-2-2-2-2-2-0-|-3-----------5----||-7---------------|
|-----------------||o-0-0-0-0-0-0-0---|-----------------o||-----------------|
|-----------------||------------------|------------------||-----------------|
   Verse
    Am
    Gtr V
    W                 +W
    |                  |
    /                  /
    Gtrs I, II
    E E E E E E E E    E E  E  E E  E  E E
||------------------|----------------------|
||o-----------------|----------------------|
||------------------|----------------------|
||------------------|-10---10-10---10-10---|
||o-7---7-7---7-7---|--8----8--8----8--8---|
||--5---5-5---5-5---|----------------------|
  Dm                G
  W                 W
  |                 |
  /                 /
  E E E E E E E E   E E E E E E E E
|-----------------|-------------------||
|-----------------|------------------o||
|-----------------|-------------------||
|-7---7-7---7-7---|-------------------||
|-5---5-5---5-5---|-5---5-5---5-5----o||
|-----------------|-3---3-3---3-3-----||
    A5               F5
    Gtrs I, II
    W                W
    |                |
    /                /
    Gtr III
    Q.   E +Q   Q    Q.   E +Q   Q
||-----------------|----------------|
||o-------------5--|-6-----------5--|
||--5----7-(7)-----|------7-(7)-----|
||-----------------|----------------|
||o----------------|----------------|
||-----------------|----------------|
|
|   Gtr IV
|   Q.   E +Q   Q    Q.   E +Q   Q
||-----------------|----------------|
||o----------------|----------------|
||-------4-(4)--5--|-5----4-(4)--5--|
||--7--------------|----------------|
||o----------------|----------------|
||-----------------|----------------|
                      1.                  2.
  D5                   G5                 G5
  W                    W                  W
  |                    |                  |
  /                    /                  /
  Q.     +E  +Q   Q    Q.   E +Q    Q     W
|--------------------|-----------------||------|
|-8b10r==(8)-(8)--6--|----------------o||------|
|--------------------|-7----9-(9)--10--||-7----|
|--------------------|-----------------||------|
|--------------------|----------------o||------|
|--------------------|-----------------||------|
|
| Q.     +E  +Q   Q    Q.   E +Q    Q     W
|--------------------|-----------------||------|
|-5b6r===(5)-(5)-----|----------------o||------|
|-----------------7--|-4----5-(5)---7--||-4----|
|--------------------|-----------------||------|
|--------------------|----------------o||------|
|--------------------|-----------------||------|
   Pre-Chorus
    Gtr I
       PM|    PM|      PM|    PM|
    Q  E E Q  E E   Q  E E Q  E E   W                 W
||----------------|---------------|-----------------|-------------------||
||o---------------|---------------|-----------------|------------------o||
||----------------|---------------|-----------------|-------------------||
||--7------7------|-3------3------|-3---------------|-5-----------------||
||o-5--5-5-5--5-5-|-1--1-1-1--1-1-|-3---------------|-5----------------o||
||----------------|---------------|-1---------------|-3-----------------||
|
|   Gtr II
|      PM|    PM|      PM|    PM|
|   Q  E E Q  E E   Q  E E Q  E E   E E E E E E E E   E E E E E E E E
||----------------|---------------|-------5-6-5-----|-8-6-5-------------||
||o---------------|---------------|---6-8-------8-6-|-------8-6-5------o||
||----------------|---------------|-5---------------|-------------7-5---||
||--7------7------|-3------3------|-----------------|-------------------||
||o-5--5-5-5--5-5-|-1--1-1-1--1-1-|-----------------|------------------o||
||----------------|---------------|-----------------|-------------------||
 Chorus
  Gtrs I, II
  PM|   PM  PM        PM  PM  PM--|
  E E E E E E E E   E E E E E E E E   E E E E E E E E   E E E E E E E E
|-----------------|-----------------|-----------------|-----------------|
|-----------------|-----------------|-----------------|-----------------|
|-----------------|-----------------|-----------------|-----------------|
|-----3---2---3p0-|-----3---2-------|-5-0-3-0-2-0-3-0-|-8-0-7-0-5-0-3-0-|
|-1-1---1---1-----|-----------------|-----------------|-----------------|
|-----------------|-3-3---3---3-3-3-|-----------------|-----------------|
                                             To Coda
  Gtr I
  PM|   PM  PM  PM    PM|   PM|   PM----------------|
  E E E E E E E E   E E E E E E E E   E E E E E E E E
|-----------------|-----------------|-----------------|
|-----------------|-----------------|-----------------|
|-----------------|-----------------|-----------------|
|-----3---2---3---|-----------------|-----------------|
|-1-1---1---1---1-|-5-----3-----2---|-7-7-7-7-7-7-7-7-|
|-----------------|---3-3---3-3---3-|-5-5-5-5-5-5-5-5-|
|
| Gtr II
| PM|   PM  PM  PM    PM|   PM|   PM-------------------
| E E E E E E E E   E E E E E E E E   E E E E E E E E
|-----------------|-----------------|-----------------|
|-----------------|-----------------|-----------------|
|-----------------|-----------------|-----------------|
|-----3---2---3---|-----------------|-----------------|
|-1-1---1---1---1-|-5-----3-----2---|-7-7-7-7-7-7-7-7-|
|-----------------|---3-3---3-3---3-|-5-5-5-5-5-5-5-5-|
    D.S. al Coda     &
                     PM------------|
  E E E E E E E E    E E E E E E E E
|-----------------||-----------------|
|-----------------||-----------------|
|---2-5-2---2-5-2-||-----------------|
|-2-------2-------||-----------------|
|-----------------||-7-7-7-7-7-7-7-7-|
|-----------------||-5-5-5-5-5-5-5-5-|
|
|----------------------------------|
| E E E E E E E E    E E E E E E E E
|-----------------||-----------------|
|-----------------||-----------------|
|-----------------||-----------------|
|-----------------||-----------------|
|-7-7-7-7-7-7-7-7-||-7-7-7-7-7-7-7-7-|
|-5-5-5-5-5-5-5-5-||-5-5-5-5-5-5-5-5-|
   Bridge
    $$
    H    E Q.     Q  E E E Q.      Q   E  E  E Q.     Q  E E E Q.
||--------------|---------------|-------------------|-----------------||
||o-------------|---------------|-------------------|----------------o||
||--------------|---------------|-------------------|-----------------||
||--------------|-8--8-8-8-7----|-------------------|-----------------||
||o-5----7-8----|---------------|-10--10-10-10-8----|-3--3-3-3-4-----o||
||--------------|---------------|-------------------|-----------------||
|
|   H    E Q.     Q  E E E Q.      Q   E  E  E Q.     Q  E E E Q.
||--------------|---------------|-------------------|-----------------||
||o-------------|---------------|-------------------|----------------o||
||--------------|---------------|-------------------|-----------------||
||-------5-7----|-8--8-8-8-7----|--8---8--8--8-7----|-----------------||
||o-8-----------|---------------|-------------------|-3--3-3-3-4-----o||
||--------------|---------------|-------------------|-----------------||
       PM|               PM|              PM|             PM|
    Q  E E E  Q.      Q  E E  E Q.     Q  E E E Q.     Q  E E E Q.
||-----------------|-----------------|---------------|-----------------||
||o----------------|-----------------|---------------|----------------o||
||-----------------|-----------------|---------------|-----------------||
||-----------------|-10------10-9----|-5------5-4----|-----------------||
||o-7------9-10----|--8--8-8--8-7----|-3--3-3-3-2----|-5------5-6-----o||
||--5--5-5-7--8----|-----------------|---------------|-3--3-3-3-4------||
|
|      PM|               PM|              PM|             PM|
|   Q  E E E  Q.      Q  E E  E Q.     Q  E E E Q.     Q  E E E Q.
||-----------------|-----------------|---------------|-----------------||
||o----------------|-----------------|---------------|----------------o||
||-----------------|-----------------|---------------|-----------------||
||-----------------|-----------------|---------------|-----------------||
||o-3--3-3-5--7----|--8--8-8--8-7----|-7--7-7-7-5----|----------------o||
||-----------------|-----------------|---------------|-3--3-3-3-4------||
    E5                                A5
    Gtr II
    W                                 W
    |                                 |
    /                                 /
    Gtr I
    S S S S S S S S S S S S S S S S   S S S S S S S S S S S S S S S S
||--4h7p4p0-4h7p4p0-4h7p4p0-4h7p4p0-|-5h8p5p0-5h8p5p0-5h8p5p0-5h8p5p0--|
||o---------------------------------|----------------------------------|
||----------------------------------|----------------------------------|
||----------------------------------|----------------------------------|
||o---------------------------------|----------------------------------|
||----------------------------------|----------------------------------|
  G5
  W
  |
  /
  S  S S S S  S S S S  S S S S  S S S
|-7h10p7---7h10p7---7h10p7---7h10p7---|
|--------8--------8--------8--------8-|
|-------------------------------------|
|-------------------------------------|
|-------------------------------------|
|-------------------------------------|
  C5                                      D5    F5VIE5
  W                                       Q  Q   Q  Q
  |                                       |      |  |
  /                                       /      /  /
  S  S S S S  S S S S  S S S S  S S S     Q  Q   Q  Q
|-8h12p8---8h12p8---8h12p8---8h12p8----||----------------|
|--------8--------8--------8--------8-o||----------------|
|--------------------------------------||----------------|
|--------------------------------------||-7-----10--9----|
|-------------------------------------o||-5------8--7----|
|--------------------------------------||----------------|
   Repeat Riff 2
    Gtr I
    E E E E E E E E   E E E E E E E E   E E E E E E E E
||------------------|-----------------|-----------------|
||o-----------------|-----------------|-----------------|
||----2-5-2---2-5-2-|-0-7-5-7-4-5-4---|---2-5-2---2-5-2-|
||--2-------3-------|---------------5-|-2-------3-------|
||o-----------------|-----------------|-----------------|
||------------------|-----------------|-----------------|
|
|   Gtr II
|   E E E E E E E E   E E E E E E E E   E E E E E E E E
||------------------|-----------------|-----------------|
||o-----------------|-----------------|-----------------|
||------------------|-----------------|-----------------|
||------------------|-5-5-5-5---------|-----------------|
||o---------8-8-8-8-|---------7-7-7-7-|---------8-8-8-8-|
||--5-5-5-5---------|-----------------|-5-5-5-5---------|
 1.                   2.
                        To Dbl. Coda
  E E E E E E E E     E E E E E E E E
|------------------||------------------|
|-----------------o||------------------|
|-0-7-5-7-4-5-4----||-0-7-5-7-4-5-4----|
|---------------5--||---------------5--|
|-----------------o||------------------|
|------------------||------------------|
|
| PM------------|
| E E E E E E E E     E E E E E E E E
|------------------||------------------|
|-----------------o||------------------|
|------------------||------------------|
|------------------||------------------|
|-----------------o||---5-3-5-2-3-2----|
|-3-3-3-3-3-3-3-3--||-3-------------3--|
 Riff 5
  Wx4
|--------|
|--------|
|--------|
|--------|
|--------|
|--------|
     PM|                               PM|
  Q  E E E Q  E   +E  E E E Q  Q    Q  E E E Q   E    +E   E  E  E  Q   Q
|---------------|-----------------|----------------|-----------------------|
|---------------|-----------------|----------------|-----------------------|
|-2------2p0--2-|-(2)-2p0-2-2--2--|-2------2p0--10-|-(10)----------12--12--|
|-2------2p0--2-|-(2)-2p0-2-2--2--|-2------2p0--10-|-(10)-10-10-10-12--12--|
|-0--0-0-0----0-|-(0)-0---0-0--0--|-0--0-0-0-----8-|--(8)--8--8--8-10--10--|
|---------------|-----------------|----------------|-----------------------|
 Guitar Solo
  Gtr I
                      |--3---|
   H          Q       E E    E    +Q     +Q     Q   Q
|-10b12------10b12r==10p8------|-----------------------|
|---------------------------10-|-(10)---(10)\----------|
|------------------------------|-------------------/9--|
|------------------------------|-----------------------|
|------------------------------|-----------------------|
|------------------------------|-----------------------|
|
| Gtr II
|        PM|
|  Q     E E  E    Q      E       +E  E   E   E Q   Q
|------------------------------|-----------------------|
|------------------------------|-----------------------|
|--2----------2p===0------2----|--(2)-2p==0---2-2---2--|
|--2----------2p===0------2----|--(2)-2p==0---2-2---2--|
|--0-----0-0--0-----------0----|--(0)-0-------0-0---0--|
|------------------------------|-----------------------|
  |3-|
  Q  E  +Q     +Q.    E        +Q.        S S  Q   +E   E
|---------------------------|------------------------------|
|-8-10-(10)---(10)---10b12==|=(10)r======10p8-10--(10)\----|
|---------------------------|------------------------------|
|---------------------------|------------------------------|
|---------------------------|------------------------------|
|---------------------------|------------------------------|
|
|        PM-|
| Q      E  E   E Q   E        +E   E  E  E    Q    Q
|---------------------------|------------------------------|
|---------------------------|------------------------------|
|-2-------------2p0--10-----|-(10)------------12---12------|
|-2-------------2p0--10-----|-(10)-10-10-10---12---12------|
|-0------0--0---0-----8-----|--(8)--8--8--8---10---10------|
|---------------------------|------------------------------|
  Q     +Q     Q    Q        Q.     E +Q   E E
|-------------------------|--------------------|
|--------------5----8-----|--5---------------5-|
|-7b9===(7)---(7)--(7)r---|---------7-(7)--5---|
|-------------------------|--------------------|
|-------------------------|--------------------|
|-------------------------|--------------------|
|
|        PM-|
| Q      E  E  E Q      E   +E  E E E  Q   Q
|-------------------------|--------------------|
|-------------------------|--------------------|
|-2------------2p0------2-|-(2)-2p0-2--2---2---|
|-2------------2p0------2-|-(2)-2p0-2--2---2---|
|-0------0--0--0--------0-|-(0)-0---0--0---0---|
|-------------------------|--------------------|
                       ~~~~
  H.          Q        H             Q    Q
|------------------|-------------------------|
|------------------|-------------------------|
|-7-----------5----|-------------------------|
|------------------|---7-----------/20\------|
|------------------|-------------------------|
|------------------|-------------------------|
|
|     PM|
| Q   E E E Q    E    +E   E  E  E   Q    Q
|------------------|-------------------------|
|------------------|-------------------------|
|-2-------2p0---10-|-(10)-----------12---12--|
|-2-------2p0---10-|-(10)-10-10-10--12---12--|
|-0---0-0-0------8-|--(8)--8--8--8--10---10--|
|------------------|-------------------------|
  E E E E E E Q     +E  E E E E E Q  a
|-----------------|-----------------------|
|-----------------|-----------------------|
|-----------------|------------------7b9==|

Продолжаем грести бабос на ботах в Telegram.
Только в этот раз есть вариант автоматизировать это дело, привлекая рефералов. Вы можете заработать если »

|-7---5-7---5-7---|-(7)---5-7---5-7-------| |---7-----7-------|-----7-----7-----------| |-----------------|-----------------------| | | PM| | Q E E E Q E +E E E E Q Q |-----------------|-----------------------| |-----------------|-----------------------| |-2-------2p0---2-|-(2)-2p0-2-2---2-------| |-2-------2p0---2-|-(2)-2p0-2-2---2-------| |-0---0-0-0-----0-|-(0)-0---0-0---0-------| |-----------------|-----------------------| +E E E E E +E Q +W |--------5-----------------------|------------------------| |------5---8-8b10==(8)r-8b10=====|==(8)r------------------| |-(7)r---------------------------|------------------------| |--------------------------------|------------------------| |--------------------------------|------------------------| |--------------------------------|------------------------| | | PM| | Q E E E Q E +E E E E Q Q |--------------------------------|------------------------| |--------------------------------|------------------------| |--2---------2p=====0---------10-|-(10)-----------12--12--| |--2---------2p=====0---------10-|-(10)--10-10-10-12--12--| |--0-----0-0-0-----------------8-|--(8)---8--8--8-10--10--| |--------------------------------|------------------------| |--3---| |--3---| |--3---| E +E E E E E +E E E E E +E E E E Q +E E |----------------5h=8p==5-----------------5h=8p==5--|------------------5h=8p==5--8b10=======(8)r---8b10===| |-8b10====(8)r-------------8b10====(8)r-------------|---8b10====(8)r--------------------------------------| |---------------------------------------------------|-----------------------------------------------------| |---------------------------------------------------|-----------------------------------------------------| |---------------------------------------------------|-----------------------------------------------------| |---------------------------------------------------|-----------------------------------------------------| | | PM---| | Q E E E Q E +E E E E Q Q |---------------------------------------------------|-----------------------------------------------------| |---------------------------------------------------|-----------------------------------------------------| |-2------------------------2p=======0----------2----|--(2)-------2p====0----2----2-----------2------------| |-2------------------------2p=======0----------2----|--(2)-------2p====0----2----2-----------2------------| |-0--------------0----0----0-------------------0----|--(0)-------0----------0----0-----------0------------| |---------------------------------------------------|-----------------------------------------------------| +E E E E E E E E +E E +E E Q +E E |--(8)r---8---5--------------------------|--------------------------------------------------| |-----------------8---5------------------|----------------------------------------20b22=====| |-------------------------7---5----7b9===|===(7)----7r==(7)p===5----------------------------| |----------------------------------------|--------------------------7------(7)/-------------| |----------------------------------------|--------------------------------------------------| |----------------------------------------|--------------------------------------------------| | | PM--| | Q E E E Q E +E E E E Q Q |----------------------------------------|--------------------------------------------------| |----------------------------------------|--------------------------------------------------| |---2-----------------2p==0-------10-----|--(10)-------------------12------12---------------| |---2-----------------2p==0-------10-----|--(10)---10---10----10---12------12---------------| |---0---------0---0---0------------8-----|---(8)----8----8-----8---10------10---------------| |----------------------------------------|--------------------------------------------------| ~~~~ ~~~~~ +H +E E E E Q. E +Q Q |------------------17-20-|-20b22---20-(20)--17--| |-(20)----(20)r-20-------|----------------------| |------------------------|----------------------| |------------------------|----------------------| |------------------------|----------------------| |------------------------|----------------------| | | W W |------------------------|----------------------| |------------------------|----------------------| |------------------------|----------------------| |---7--------------------|-10-------------------| |---5--------------------|--8-------------------| |------------------------|----------------------| ~~~~ Q. E +Q E E +H. +E +E |--------------------------|---------------------------| |-20----17-(17)------------|---------------------------| |----------------19-19b21==|=(19)------------(19)r(19)-| |--------------------------|---------------------------| |--------------------------|---------------------------| |--------------------------|---------------------------| | | W Q. E +H |--------------------------|---------------------------| |--------------------------|---------------------------| |--------------------------|---------------------------| |-12-----------------------|--15----17-(17)------------| |-10-----------------------|--13----15-(15)------------| |--------------------------|---------------------------| |--3--| |--3--| |--3--| |--3--| |--3--| |--3--| |--3--| E E E E E E E E E E E E E E E E E E E E E S S E |-------------------------------------|-------------------------------------| |-------------------------------------|-------------------17-20-17-20p17----| |-------------------17----17-19-17----|-17----17-19-17-19----------------19-| |-17----17-19-17-19----19----------19-|----19-------------------------------| |----19-------------------------------|-------------------------------------| |-------------------------------------|-------------------------------------| | | W W |-------------------------------------|-------------------------------------| |-------------------------------------|-------------------------------------| |-------------------------------------|-------------------------------------| |--7----------------------------------|-10----------------------------------| |--5----------------------------------|--8----------------------------------| |-------------------------------------|-------------------------------------| |--3--| |--3--| |--3--| |--3--| |---3----| |--3---| |--3--| E E E S S S S E E E E E E E E E E E E E E E E E E |----------17h18p17-20p18p17-------------|-------15----------------------------------| |-17h18h20-------------------20p18p17s15h|=17h18----18p16p===15------------16p15-----| |----------------------------------------|-----------------------17p=16-17-------17--| |----------------------------------------|-------------------------------------------| |----------------------------------------|-------------------------------------------| |----------------------------------------|-------------------------------------------| | | W Q. E +H |----------------------------------------|-------------------------------------------| |----------------------------------------|-------------------------------------------| |----------------------------------------|-------------------------------------------| |-12-------------------------------------|-15-------------17----(17)-----------------| |-10-------------------------------------|-13-------------15----(15)-----------------| |----------------------------------------|-------------------------------------------| Guitar Solo 2 Bb5 F5VIII C5 D5 C5 Gtr II W W W H H | | | | | / / / / / Q Q Q Q Q Q Q Q Q Q E +Q +E H E E Q |----------5b6r=|=5--------------|----------------------|-------------| |----3--6-------|----6-----8b10r=|=8-----8b10==(8)r=(8)-|-6----5-6-5--| |-3-------------|-------5--------|----5-----------------|-------------| |---------------|----------------|----------------------|-------------| |---------------|----------------|----------------------|-------------| |---------------|----------------|----------------------|-------------| Bb5 F5VIII C5 D5 C5 W W W H H | | | | | / / / / / Q Q Q Q Q Q Q Q E Q. E Q. E E Q E E E E |----------5b6r=|=5-----------|-5------5------|----------------| |----3--6-------|----6--------|---8------8----|-6-8-6--5-6-5---| |-3-------------|-------5-----|---------------|--------------5-| |---------------|----------7--|---------------|----------------| |---------------|-------------|---------------|----------------| |---------------|-------------|---------------|----------------| Bb5 F5VIII W W | | / / E E E E E E E E E E E E E E E E |-------------------10-12-|-13p8-------------------| |----------10-11-13-------|------10----13p10-------| |-------10----------------|---------10-------10----| |----12-------------------|---------------------10-| |-13----------------------|------------------------| |-------------------------|------------------------| C5 D5 C5 W H H | | | / / / E E E E E E Q H E E Q |--------8----10-13b15r=|=13----12-13-12--| |------8---13-----------|-----------------| |----9------------------|-----------------| |-10--------------------|-----------------| |-----------------------|-----------------| |-----------------------|-----------------| Bb5 F5VIII W W | | / / |--3--| |--3--| |--3--| |--3--| E E E E E E E E E E E E E E E E E E E E |-22p18----20p18----22p18----24p18----|-20-18-17-18-20-18-17-18-| |-------18-------18-------18-------18-|-------------------------| |-------------------------------------|-------------------------| |-------------------------------------|-------------------------| |-------------------------------------|-------------------------| |-------------------------------------|-------------------------| C5 D5 C5 W H H | | | / / / E E E E E E E E H E E Q |----------12-13-15-13-12-|-13----12-13-12--| |----13-15----------------|-----------------| |-12----------------------|-----------------| |-------------------------|-----------------| |-------------------------|-----------------| |-------------------------|-----------------| Verse 3 Am Dm G Gtr V W +W W W | | | | / / / / W W W W |------------------|----------------------|-----------------|-----------------| |-13---------------|----------------------|-----------------|-----------------| |------------------|----------------------|-----------------|-----------------| |------------------|----------------------|-----------------|-----------------| |------------------|----------------------|-----------------|-----------------| |------------------|----------------------|-----------------|-----------------| | | Gtrs I, II | E E E E E E E E E E E E E E E E E E E E E E E E E E E E E E E E |------------------|----------------------|-----------------|-----------------| |------------------|----------------------|-----------------|-----------------| |------------------|----------------------|-----------------|-----------------| |------------------|-10---10-10---10-10---|-7---7-7---7-7---|-----------------| |--7---7-7---7-7---|--8----8--8----8--8---|-5---5-5---5-5---|-5---5-5---5-5---| |--5---5-5---5-5---|----------------------|-----------------|-3---3-3---3-3---| Am Dm G W +W W W | | | | / / / / Gtrs I, II E E E E E E E E E E E E E E E E E E E E E E E E E E E E E E E E |-----------------|----------------------|-----------------|-----------------| |-----------------|----------------------|-----------------|-----------------| |-----------------|----------------------|-----------------|-----------------| |-----------------|-10---10-10---10-10---|-7---7-7---7-7---|-----------------| |-7---7-7---7-7---|--8----8--8----8--8---|-5---5-5---5-5---|-5---5-5---5-5---| |-5---5-5---5-5---|----------------------|-----------------|-3---3-3---3-3---| A5 F5 Gtrs I, II W W | | / / Gtr III Q. E +Q Q Q. E +Q Q ||-----------------|----------------| ||o-------------5--|-6-----------5--| ||--5----7-(7)-----|------7-(7)-----| ||-----------------|----------------| ||o----------------|----------------| ||-----------------|----------------| | | Gtr IV | Q. E +Q Q Q. E +Q Q ||-----------------|----------------| ||o----------------|----------------| ||-------4-(4)--5--|-5----4-(4)--5--| ||--7--------------|----------------| ||o----------------|----------------| ||-----------------|----------------| 1. 2. D5 G5 G5 W W W | | | / / / Q. +E +Q Q Q. E +Q Q W |--------------------|-----------------||------| |-8b10r==(8)-(8)--6--|----------------o||------| |--------------------|-7----9-(9)--10--||-7----| |--------------------|-----------------||------| |--------------------|----------------o||------| |--------------------|-----------------||------| | | Q. +E +Q Q Q. E +Q Q W |--------------------|-----------------||------| |-5b6r===(5)-(5)-----|----------------o||------| |-----------------7--|-4----5-(5)---7--||-4----| |--------------------|-----------------||------| |--------------------|----------------o||------| |--------------------|-----------------||------| Pre-Chorus Gtr I PM| PM| PM| PM| Q E E Q E E Q E E Q E E W W ||----------------|---------------|-----------------|-------------------|| ||o---------------|---------------|-----------------|------------------o|| ||----------------|---------------|-----------------|-------------------|| ||--7------7------|-3------3------|-3---------------|-5-----------------|| ||o-5--5-5-5--5-5-|-1--1-1-1--1-1-|-3---------------|-5----------------o|| ||----------------|---------------|-1---------------|-3-----------------|| | | Gtr II | PM| PM| PM| PM| | Q E E Q E E Q E E Q E E E E E E E E E E E E E E E E E E ||----------------|---------------|-------5-6-5-----|-8-6-5-------------|| ||o---------------|---------------|---6-8-------8-6-|-------8-6-5------o|| ||----------------|---------------|-5---------------|-------------7-5---|| ||--7------7------|-3------3------|-----------------|-------------------|| ||o-5--5-5-5--5-5-|-1--1-1-1--1-1-|-----------------|------------------o|| ||----------------|---------------|-----------------|-------------------|| Chorus Gtrs I, II PM| PM PM PM PM PM--| E E E E E E E E E E E E E E E E E E E E E E E E E E E E E E E E |-----------------|-----------------|-----------------|-----------------| |-----------------|-----------------|-----------------|-----------------| |-----------------|-----------------|-----------------|-----------------| |-----3---2---3p0-|-----3---2-------|-5-0-3-0-2-0-3-0-|-8-0-7-0-5-0-3-0-| |-1-1---1---1-----|-----------------|-----------------|-----------------| |-----------------|-3-3---3---3-3-3-|-----------------|-----------------| D.S.S. al Dbl. Coda PM| PM PM PM PM| PM| PM----------------------------------| E E E E E E E E E E E E E E E E E E E E E E E E E E E E E E E E |-----------------|-----------------|-----------------|-----------------|| |-----------------|-----------------|-----------------|-----------------|| |-----------------|-----------------|-----------------|-----------------|| |-----3---2---3---|-----------------|-----------------|-----------------|| |-1-1---1---1---1-|-5-----3-----2---|-7-7-7-7-7-7-7-7-|-7-7-7-7-7-7-7-7-|| |-----------------|---3-3---3-3---3-|-5-5-5-5-5-5-5-5-|-5-5-5-5-5-5-5-5-|| Repeat Riff 3 1.,2.,3. && Am G Gtr V W W | | / / Gtr I PM E E E E E E E E E E E E E E E E 4x ||--------------------|---------------------|| ||o-------------------|-----------8---10-8-o|| ||------9--------10---|-9----10-9---7-------|| ||----7---7-10-7----7-|---10----------------|| ||o-7-----------------|--------------------o|| ||--------------------|---------------------|| | | Gtr II | PM---------------------------------------- | E E E E E E E E E E E E E E E E 4x ||--------------------|---------------------|| ||o-------------------|--------------------o|| ||--------------------|---------------------|| ||--------------------|---------------------|| ||o----------8-8--8-8-|-3--3--3-3----------o|| ||--5-5-5-5-----------|-----------3-3--3-3--|| 4. G W W | / E E E E E E E E E E E E E E E E |-------------------|------------------| |-------------------|------------------| |-9----10-9-7---9-7-|-5---7-5-4---5-4--| |---10--------9-----|---7-------5------| |-------------------|------------------| |-------------------|------------------| | |-----------------------------------| | E E E E E E E E E E E E E E E E |-------------------|------------------| |-------------------|------------------| |-------------------|------------------| |-------------------|------------------| |-3--3--3-3---------|------------------| |-----------3-3-3-3-|-5-5-5-5-3-3-3-3--| Repeat Riff 4 PM------------| E E E E E E E E E E E E E E E E |-----------------||------------------| |-------3---------||o-----------------| |---4-5---5-4---4-||--2-2-2-2-2-2-2-0-| |-3-----------5---||--2-2-2-2-2-2-2-0-| |-----------------||o-0-0-0-0-0-0-0---| |-----------------||------------------| | | PM------------| | E E E E E E E E E E E E E E E E |-----------------||------------------| |-------3---------||o-----------------| |---4-5---5-4---4-||--2-2-2-2-2-2-2-0-| |-3-----------5---||--2-2-2-2-2-2-2-0-| |-----------------||o-0-0-0-0-0-0-0---| |-----------------||------------------| 1.,2. 3. H.=H E E E E E E E E 3x E E E E E E E E W |------------------||-----------------|------*| |-------3---------o||-------3---------|------*| |---4-5---5-4---4--||---4-5---5-4---4-|-2----*| |-3-----------5----||-3-----------5---|-2----*| |-----------------o||-----------------|-0----*| |------------------||-----------------|------*| | | E E E E E E E E 3x E E E E E E E E W |------------------||-----------------|------*| |-------3---------o||-----5-6-5-------|-5----*| |---4-5---5-4---4--||---7-------7-4-7-|------*| |-3-----------5----||-7---------------|------*| |-----------------o||-----------------|------*| |------------------||-----------------|------*|








О сайтеАккордыХит-парадПоискУроки ФорумыИщу песню
ПрограммыСвежачок-сПодпискаСтатьи
Яндекс.Метрика