Табулатура Эпидемия | Кровь Эльфов  (2) гитара табулатуры уроки тексты песен Эпидемия текст lyrics песня аккорды песни ноты нота электрогитара струна  
   А Б В Г Д Е Ж З И К Л М Н О П Р С Т У Ф Х Ч Ш Ы Э Ю Я       Разные песни
1-9 A B C D E F G H I J K L M N O P Q R S T U V W Y Z      Все исполнители

    



группа Эпидемия, Табулатура песни Кровь Эльфов (2)

Группа: Эпидемия - другие аккорды (138),   о группе (9 статей),   диски (6),   фотографии (18)
Табулатура песни: Кровь Эльфов (2)
Просмотров: 1193
Подобрал: Кирилл (kirill_troy@pochta.ru)




    
                         |-3-|
    E  E  E  E  E  E  E  S S S   E  E  E  E  E  E  E  E
||-----------------------------|--------------------------||
||o-------3-----2--3-----------|-------3--3--3--2--0--2--o||
||-----2-----0--------2--3p2---|----3---------------------||
||--0------------------------0-|--------------------------||
||o----------------------------|-1-----------------------o||
||-----------------------------|--------------------------||
    D5                            Bb5         G5
    Gtr II
    H.                 E  E       H           H
    |                  |  |       |           |
    /                  o  /       /           /
    PM--------|
                          |-3-|
    E   E  E  E  E  E  E  S S S   E  E  E  E  E  E  E  E   4x
||------------------------------|--------------------------||
||o--------3-----2--3-----------|-------3--3--3--2--0--2--o||
||------2-----0--------2--3p2---|----3---------------------||
||--0-------------------------0-|--------------------------||
||o-----------------------------|-1-----------------------o||
||------------------------------|--------------------------||
    D5                           Bb5         A5
    E  E  E  E  E  E  E  E       E  E  E  E  E  E  E  E
    |  |  |  |  |  |  |  |       |  |  |  |  |  |  |  |
    /  /  /  /  /  /  /  /       /  /  /  /  /  /  /  /
    PM-------|
                         |-3-|
    E  E  E  E  E  E  E  S S S   E  E  E  E  E  E  E  E   4x
||-----------------------------|--------------------------||
||o-------3-----2--3-----------|-------3--3--3--2--0--2--o||
||-----2-----0--------2--3p2---|----3---------------------||
||--0------------------------0-|--------------------------||
||o----------------------------|-1-----------------------o||
||-----------------------------|--------------------------||
   Riff 2
    Slower Q=136
    D5                      G5
    Gtr I
    W          +W           W          +W
    |           |           |           |
    /           /           /           /
    Gtr II
    W          +W           W          +W
||--2--------|-(2)--------|-3--------|-(3)-----||
||o-3--------|-(3)--------|-0--------|-(0)----o||
||--2--------|-(2)--------|-0--------|-(0)-----||
||--0--------|-(0)--------|-0--------|-(0)-----||
||o----------|------------|----------|--------o||
||-----------|------------|----------|---------||
|
|   Gtr V
|   W          +W           W          +W
||-----------|------------|----------|---------||
||o----------|------------|----------|--------o||
||-----------|------------|----------|---------||
||--4--------|-(4)--------|-5--------|-(5)-----||
||o----------|------------|----------|--------o||
||-----------|------------|----------|---------||
   Riff 3
    $
    Gtr I
    PM---------|              PM---------|
    S S S S E  E  Q    Q      S S S S E  E  Q    Q
||--------------------------|-------------------------||
||o-------------------------|------------------------o||
||--------------------------|-------------------------||
||----------------5----4----|-------------------------||
||o-2-2---2-2--2------------|-2-2---2-2--2--5----7---o||
||--0-0---0-0--0------------|-0-0---0-0--0------------||
|
|   Gtr II
|   PM---------|              PM---------|
|   S S S S E  E  Q    Q      S S S S E  E  Q    Q
||--------------------------|-------------------------||
||o-------------------------|------------------------o||
||--------------------------|-------------------------||
||--------------------------|-------------------------||
||o-2-2---2-2--2--7----7----|-2-2---2-2--2--2----3---o||
||--0-0---0-0--0------------|-0-0---0-0--0------------||
    PM---------|                PM---------|
    S S S S E  E  S S E  E  E   S S S S E  E  S S E  E  E   4x
||----------------------------|-----------------------------||
||o---------------------------|----------------------------o||
||----------------------------|-----------------------------||
||-----------------------5--4-|---------------5h7p5---------||
||o-2-2---2-2--2--5h7p5-------|-2-2---2-2--2---------5--7--o||
||--0-0---0-0--0--------------|-0-0---0-0--0----------------||
|
|   PM---------|                PM---------|
|   S S S S E  E  S S E  E  E   S S S S E  E  S S E  E  E   4x
||----------------------------|-----------------------------||
||o---------------------------|----------------------------o||
||----------------------------|-----------------------------||
||----------------------------|---------------5h7p5---------||
||o-2-2---2-2--2--5h7p5--7--7-|-2-2---2-2--2---------2--3--o||
||--0-0---0-0--0--------------|-0-0---0-0--0----------------||
   Verse
    Gtrs I, II
    W          H    H      H    H      H    H
||-----------|-----------|-----------|-----------||
||o----------|-----------|-----------|----------o||
||-----------|-5---------|-2---------|-----------||
||--2--------|-5----2----|-2----2----|-5----4----||
||o-2--------|-3----2----|-0----2----|-3----2---o||
||--0--------|------0----|------0----|-3----2----||
      PM----|   PM--|     PM--|     PM--|
    S S E E E E E E E   S S E E E E E E E
||--------------------|-------------------|
||o-------------------|-------------------|
||--------------------|-5-----------------|
||--2---------2-------|-5---------2-------|
||o-2---------2-------|-3-3-3-3-3-2-------|
||--0-0-0-0-0-0-0-0-0-|-----------0-0-0-0-|
    PM--|   PM--|     PM--|   PM--|
  E E E E E E E E   E E E E E E E E
|-----------------|-------------------||
|-----------------|------------------o||
|-2---------------|-------------------||
|-2-------2-------|-5-------4---------||
|-0-0-0-0-2-------|-3-------2--------o||
|---------0-0-0-0-|-3-3-3-3-2-2-2-2---||
   Riff 4
          PM----|       PM----|         PM----|       PM----|
    E  E  S S S S E  E  S S S S   E  E  S S S S E  E  S S S S
||------------------------------|-------------------------------||
||o-----------------------------|------------------------------o||
||------------------------------|-------------------------------||
||------------------------------|-------------------------------||
||o----2-------------3----------|----5-------------7-----------o||
||--0-----0-2-3-0-2-----2-3-5-2-|-3-----3-5-7-3-5-----5-7-8-5---||
   Pre-Chorus
    $$
          PM----|       PM----|         PM----|       PM----|
    E  E  S S S S E  E  S S S S   E  E  S S S S E  E  S S S S   5x
||------------------------------|-------------------------------||
||o-----------------------------|------------------------------o||
||------------------------------|-------------------------------||
||------------------------------|-------------------------------||
||o----2-------------3----------|----5-------------7-----------o||
||--0-----0-2-3-0-2-----2-3-5-2-|-3-----3-5-7-3-5-----5-7-8-5---||
                       To Dbl. Coda
  B5
  Gtr I
  E   E   E   E   E   E     E   E
  |   |   |   |   |   |     |   |
  /   /   /   /   /   /     /   /
  Gtr II
  S S S S S S S S S S S  S  S S E
|---------------7-7---7-11-11-7-7\--|
|-------7-7---7-----7---------------|
|-----8-----8-----------------------|
|-9-9-------------------------------|
|-----------------------------------|
|-----------------------------------|
   Chorus
                                     1.
    Gtr V
    W                +W               W                +W
    |                 |               |                 |
    o                 /               o                 /
    Gtr I
    PM|                               PM|
    E E Q  E E E E   +H     E E Q     E E Q  E E E E   +H     E E Q
||-----------------|----------------|----------------|-----------------||
||o----------------|----------------|----------------|----------------o||
||-----------------|----------------|-----2----------|-----------------||
||------2--4-5-4-5-|-(5)----4-5-4---|-----2--4-5-4-5-|-(5)-------------||
||o-----2--------3-|-(3)------------|-0-0-0--------3-|-(3)----5-7-5---o||
||--0-0-0----------|----------------|----------------|-----------------||
|
|   Gtr II
|   PM|    PM--|            PM|       PM|    PM--|            PM|
|   E E Q  E E E E   +H     E E Q     E E Q  E E E E   +H     E E Q
||-----------------|----------------|----------------|-----------------||
||o----------------|----------------|----------------|----------------o||
||---------------5-|-(5)--------9\--|-----2--------5-|-(5)--------4----||
||------2--------5-|-(5)--------9\--|-----2--------5-|-(5)--------4----||
||o-----2------2-3-|-(3)----7-7-7\--|-0-0-0------0-3-|-(3)----2-2-2---o||
||--0-0-0--3-3-----|----------------|--------0-0-----|-----------------||
                                    Riff 5
  2.
  W                 +W               W
  |                  |
  o                  /
  PM|                                PM|
  E E Q   E E E E   +H     E E Q     E E E E E E E E
|-----------------|---------------||-----------------|
|-----------------|---------------||-----------------|
|-----2-----------|---------------||-----------------|
|-----2---4-5-4-5-|-(5)-----------||-----5---4-5-4---|
|-0-0-0---------3-|-(3)----5-7-5--||-----7---------3-|
|-----------------|---------------||-0-0-------------|
|
| PM|   PM----|            PM|       PM|   PM    PM
| E E E E E E E E   +H     E E Q     E E E E E E E E
|-----------------|---------------||-----------------|
|-----------------|---------------||-----------------|
|-----2---------5-|-(5)-----------||-----------------|
|-----2---------5-|-(5)-----------||-----9---9-9---5-|
|-0-0-0-0-----0-3-|-(3)----2-2----||-----7---7-7-5-3-|
|---------0-0-----|------------3--||-0-0---0---------|
      PM------|      PM|
  +E  E E E E E Q    E E E E E E E E   +E  E E E +H       H    H
|------------------|-----------------|------------------|-----------|
|------------------|-----------------|------------------|-----------|
|------------------|-----------------|------------------|-----------|
|---------------2--|-----5---4-5-4-5-|-(5)-4-5-7-(7)----|-2----5----|
|-(3)-2-0-------2--|-----7---------3-|-(3)-----5-(5)----|-2----5----|
|---------3-2-1-0--|-0-0-------------|------------------|-0----3----|
|
|     PM------|      PM|   PM    PM
| +E  E E E E E Q    E E E E E E E E   +E  E E E +H       H    H
|------------------|-----------------|------------------|-----------|
|------------------|-----------------|------------------|-----------|
|------------------|-----------------|------------------|-----------|
|-(5)-----------2--|-----9---9-9---5-|-(5)-4-5-7-(7)----|-2----5----|
|-(3)-2-0-------2--|-----7---7-7-5-3-|-(3)--------------|-2----5----|
|---------3-2-1-0--|-0-0---0---------|------------------|-0----3----|
                     To Coda          D.S. al Coda    &
  Gtrs I, II
              PM------------|
  H    H      E E E E E E E E   E.  S +E   E  H       E.  S +E   E  Q  Q
|-----------|-----------------|--------------------||---------------------|
|-----------|-----------------|--------------------||---------------------|
|-3----2----|-----------------|-3---5-(5)--3--2----||-3---5-(5)--3--2-----|
|-3----2----|-----------------|-3---5-(5)--3--2----||-3---5-(5)--3--2-----|
|-1----0----|-2-2-2-2-5-5-5-5-|-1---3-(3)--1--0----||-1---3-(3)--1--0-----|
|-----------|-0-0-0-0-3-3-3-3-|--------------------||---------------------|
 Riff 6
  Faster Q=185
  Gtr I
  PM--------------------------------------------------------------|
  S S S S S S S S S S S S S S S S   S S S S S S S S S S S S S S S S
|---------------------------------|---------------------------------|
|---------------------------------|---------------------------------|
|---------------------------------|---------------------------------|
|---------------------------------|---------------------------------|
|-5-5-5-5-5-5-5-5-5-5-5-5-5-5-5-5-|-5-5-5-5-5-5-5-5-5-5-5-5-5-5-5-5-|
|---------------------------------|---------------------------------|
|
| Gtr II
| W                                 S S S S S S S S S S S S S S S S
|---------------------------------|---------------------------------|
|---------------------------------|---------------------------------|
|---------------------------------|---------------------------------|
|---------------------------------|---------------------------------|
|---------------------------------|-8-8-8-8-8-8-8-8-8-8-8-8-8-8-8-8-|
|---------------------------------|---------------------------------|
  S S S S S S S S S S S S S S S S   S S S S S S S S S S S S S S S S
|---------------------------------|---------------------------------|
|---------------------------------|---------------------------------|
|---------------------------------|---------------------------------|
|---------------------------------|-7-7-7-7-7-7-7-7-7-7-7-7-7-7-7-7-|
|-8-8-8-8-8-8-8-8-8-8-8-8-8-8-8-8-|---------------------------------|
|---------------------------------|---------------------------------|
|
| S S S S S S S S S S S S S S S S   S S S S S S S S S S S S S S S S
|---------------------------------|---------------------------------|
|---------------------------------|---------------------------------|
|---------------------------------|-7-7-7-7-7-7-7-7-7-7-7-7-7-7-7-7-|
|-7-7-7-7-7-7-7-7-7-7-7-7-7-7-7-7-|---------------------------------|
|---------------------------------|---------------------------------|
|---------------------------------|---------------------------------|
 Bridge
  Gtrs I, II
  PM--------------------------------------------------------------|
  S S S S S S S S S S S S S S S S   S S S S S S S S S S S S S S S S
|---------------------------------|---------------------------------|
|---------------------------------|---------------------------------|
|---------------------------------|---------------------------------|
|---------------------------------|---------------------------------|
|---------------------------------|-3-3-3-3-3-3-3-3-3-3-3-3-3-3-3-3-|
|-1-1-1-1-1-1-1-1-1-1-1-1-1-1-1-1-|---------------------------------|
  PM--------------------------------------------------------------|
  S S S S S S S S S S S S S S S S   S S S S S S S S S S S S S S S S
|---------------------------------|---------------------------------|
|---------------------------------|---------------------------------|
|---------------------------------|---------------------------------|
|---------------------------------|---------------------------------|
|-1-1-1-1-1-1-1-1-1-1-1-1-1-1-1-1-|-5-5-5-5-5-5-5-5-5-5-5-5-5-5-5-5-|
|---------------------------------|---------------------------------|
  PM--------------------------------------------------------------|
  S S S S S S S S S S S S S S S S   S S S S S S S S S S S S S S S S
|---------------------------------|---------------------------------|
|---------------------------------|---------------------------------|
|---------------------------------|---------------------------------|
|---------------------------------|---------------------------------|
|-1-1-1-1-1-1-1-1-1-1-1-1-1-1-1-1-|---------------------------------|
|---------------------------------|-1-1-1-1-1-1-1-1-1-1-1-1-1-1-1-1-|
  PM--------------------------------------------------------------|
  S S S S S S S S S S S S S S S S   S S S S S S S S S S S S S S S S
|---------------------------------|---------------------------------|
|---------------------------------|---------------------------------|
|---------------------------------|---------------------------------|
|---------------------------------|---------------------------------|
|-1-1-1-1-1-1-1-1-1-1-1-1-1-1-1-1-|-3-3-3-3-3-3-3-3-3-3-3-3-3-3-3-3-|
|---------------------------------|---------------------------------|
  Half Time Q=90
    PM--|         PM--|           PM--|         PM--|
  S S S S E  E  S S S S E  E    S S S S E  E  S S S S E  E
|-----------------------------|-----------------------------|
|-----------------------------|-----------------------------|
|-2-------2--2--7-------7--7--|-5-------5--5----------------|
|-2-------2--2--7-------7--7--|-5-------5--5--3-------3--3--|
|-0-0-0-0-0--0--5-5-5-5-5--5--|-3-3-3-3-3--3--3-------3--3--|
|-----------------------------|---------------1-1-1-1-1--1--|
  E Q.   E Q.     H    Q  Q
|---------------|------------|
|---------------|------------|
|-3------3------|-5----3--2--|
|-3------3------|-5----3--2--|
|-1------1------|-3----1--0--|
|---------------|------------|
 Interlude
  Moderately Q=125
  Gtr VI
  E E E E E E E E   E E E E +E  E Q    E E E E +E  E E E   E E E E +E  E Q
|-------------0---|------------------|-------------------|------------------|
|-------3-------3-|-------3-(3)------|-------3-(3)-------|-------2-(2)------|
|-----2---2-------|-----3-------3----|-----3-------3-----|-----0-------0----|
|---0-------0-----|---0-----------0--|---0-----------0---|---2-----------2--|
|-0---------------|-0----------------|-1---------------1-|-0----------------|
|-----------------|------------------|-------------------|------------------|
|
| Gtrs I, II
| >
| W                 W                  W                   W
|-----------------|------------------|-------------------|------------------|
|-----------------|------------------|-------------------|------------------|
|-7---------------|------------------|-------------------|------------------|
|-7---------------|------------------|-------------------|------------------|
|-5---------------|------------------|-------------------|------------------|
|-----------------|------------------|-------------------|------------------|
  E E E E E E E E   E E E E +E  E Q    E E E E E E Q     E E E E +H
|-------------0---|------------------|-5-----3---------|--------------|
|-------3-------3-|-------3-(3)------|---3-----3---6\--|-------2-(2)--|
|-----2---2-------|-----3-------3----|-----3-----3-----|-----0--------|
|---0-------0-----|---2-----------2--|-----------------|---2----------|
|-0---------------|-1----------------|-----------------|-0------------|
|-----------------|------------------|-----------------|--------------|
  E E E E E E E E   E E E E E E E E   E E E E E E E E   E E E E E E E E
|-----------------|-----------------|-----------------|-----------------|
|---------1-------|---------1-------|---------3-------|---------2-------|
|-----0-----0---0-|-----0-----0---0-|-----3-----3---3-|-----0-----0---0-|
|---2---2-----2---|---0---0-----0---|---2---2-----2---|---2---2-----2---|
|-3---------------|-----------------|-1---------------|-0---------------|
|-----------------|-3---------------|-----------------|-----------------|
|
| Gtr IV
| W                 W                 W                 W
|-----------------|-----------------|-----------------|-----------------|
|-5---------------|-----------------|-6---------------|-5---------------|
|-----------------|-7---------------|-----------------|-----------------|
|-----------------|-----------------|-----------------|-----------------|
|-----------------|-----------------|-----------------|-----------------|
|-----------------|-----------------|-----------------|-----------------|
|-----------------|-----------------|-----------------|-----------------|
   E E E E  E E E E    E E E E  E E E E    E E E E  E Q.
|-------------------|---------------0---|--------------------|
|---------------0---|------1----------1-|-----------0--------|
|------2----------0-|--------2----0-----|------2----0--------|
|--------3----0-----|----2--------------|--------3--0--------|
|----3--------------|--0--------3-------|----3------2--------|
|--1--------3-------|-------------------|--1--------3--------|
|
|  H        H          H        H          H        E Q.
|-17-------19-------|-20-------15-------|-17-------19--------|
|-18-------20-------|-22-------17-------|-18-------20--------|
|-------------------|-------------------|--------------------|
|-------------------|-------------------|--------------------|
|-------------------|-------------------|--------------------|
|-------------------|-------------------|--------------------|
|-------------------|-------------------|--------------------|
|
| Gtrs I, II
|                                                     PM---|
|  W                   W                   H        E E  E E
|-------------------|-------------------|--------------------|
|-------------------|-------------------|--------------------|
|-------------------|-------------------|--------------------|
|-------------------|-------------------|--------------------|
|-------------------|-------------------|-------------0--2-3-|
|-------------------|-------------------|--------------------|
 Riff 7
  Gtrs I, II
                  PM----|                        PM-|
  E.   S E  E  E  E  E  E   E.   S E  E  +E   E  E  E
|-------------------------|---------------------------|
|-------------------------|---------------------------|
|-2------2--0-------------|-----------3--(3)--3-------|
|-2------2--0--2----------|-3------3--3--(3)--3-------|
|-0----0-0--x--2----------|-3------3--1--(1)--1--1--1-|
|-----------3--0--0--3--0-|-1----1-1------------------|
       PM              PM---|      PM-|
  E.   S E  E  +E   E  E  S S   E  E  E  E  E  E  E  E
|-----------------------------|-------------------------|
|-----------------------------|----------5--------5--6--|
|-----------5--(5)--5---------|-3-----------3--2--------|
|-5------5--5--(5)--5---------|-3-----------------------|
|-5------5--3--(3)--3--3--3-3-|-1--1--1-----------------|
|-3----3-3--------------------|-------------------------|
       PM         PM----|                         PM-|
  E.   S E  E  E  E  E  E    E.   S E  E  +E   E  E  E
|--------------------------|----------------------------|
|--------------------------|----------------------------|
|-7------7--5--2-----------|-----------2--(2)--2--------|
|-7------7--5--2-----------|-3------3--2--(2)--2--------|
|-5----5-5--3--0--0--3--0--|-3------3--0--(0)--0--0--0--|
|--------------------------|-1----1-1-------------------|
                                                        Double Time Q=249
       PM                         PM-|     PM-|
  E.   S E  E  +E   E  E  E    E  E  E  E  E  E  E  E   W
|----------------------------|------------------------|------|
|----------------------------|------------------------|------|
|-----------5--(5)--2--3--3--|-2--------2--------2----|------|
|-5------5--5--(5)--2--3--3--|-2--------2--------2----|------|
|-5------5--3--(3)--0--1--1--|-0--0--0--0--0--0--0----|------|
|-3----3-3-------------------|------------------------|------|
 Guitar Solo 1
  Gtr I
  H      E E  E E   Q  S  S E  Q   E  E
|-----------------|---------------------|
|-----------------|---------------------|
|----------9------|---------9-----------|
|------------10-9-|-7--9s10---10---9-10-|
|-----------------|---------------------|
|-----------------|---------------------|
|
| Gtr II
| Q  E E E E  E E   Q  E    E  E E E  E
|-----------------|---------------------|
|-----------------|---------------------|
|-2---------------|-2-------------------|
|-2---------------|-2-------------------|
|-0--0-0-0-0--0-0-|-0--0----0--0-0-0--0-|
|-----------------|---------------------|
                          ~
   E  E E  E  E E  E  E   H      +Q.      E
|-----------------------|--------------------|
|-----------------------|-----------------0S=|
|-12-10-9---------------|-9------(9)\--------|
|---------12-10-9-10-12-|--------------------|
|-----------------------|--------------------|
|-----------------------|--------------------|
|
|  Q    E  E  E E  E  E   Q  E E  E   E E E
|-----------------------|--------------------|
|-----------------------|--------------------|
|-----------------------|--------------------|
|--3--------------------|-3------------------|
|--3--------------------|-3------------------|
|--1----1--1--1-1--1--1-|-1--1-1--1---1-1-1--|
  E E Q    Q    E  E    q   q    Q       q
|--------------------|-----------------------|
|-8-5-8---10\---8s10-|-13--13---15b17---13---|
|--------------------|-----------------------|
|--------------------|-----------------------|
|--------------------|-----------------------|
|--------------------|-----------------------|
|
| Q   E E  E  E E  E    Q   E E  E    E  E E
|--------------------|-----------------------|
|--------------------|-----------------------|
|-2------------------|--2--------------------|
|-2------------------|--2--------------------|
|-0---0-0--0--0-0--0-|--0---0-0--0----0--0-0-|
|--------------------|-----------------------|
                                 ~~~~~~~~~~~
   E      +E   +E   +S   S  Q    Q      +Q    +Q     E   E  Q
|------------------------------------|---------------------------|
|-15b17==(15)-(15)r(15)p13------13---|-(13)--(13)\---------13----|
|--------------------------14--------|-----------------/14-------|
|------------------------------------|---------------------------|
|------------------------------------|---------------------------|
|------------------------------------|---------------------------|
|
|  Q            E    E      E E  E E     Q     E   E E   E  E E
|------------------------------------|---------------------------|
|------------------------------------|---------------------------|
|------------------------------------|---------------------------|
|--3---------------------------------|---3-----------------------|
|--3---------------------------------|---3-----------------------|
|--1------------1----1------1-1--1-1-|---1-----1---1-1---1--1-1--|
   E  E  E  E  E  E  E  E    E  E  E  E  E  E  Q
|-------------------------|------------------------|
|-15p13-17p13-15p13-17p13-|-15p13-17p13-15p13-13---|
|-------------------------|------------------------|
|-------------------------|------------------------|
|-------------------------|------------------------|
|-------------------------|------------------------|
|
|  Q     E  E  E  E  E  E    Q     E  E  E  E  E E
|-------------------------|------------------------|
|-------------------------|------------------------|
|--2----------------------|--2---------------------|
|--2----------------------|--2---------------------|
|--0-----0--0--0--0--0--0-|--0-----0--0--0--0--0-0-|
|-------------------------|------------------------|
   E  E  E  E  E  E  Q      Q   E  E  Q    Q
|------------------------|---------------------|
|-15-13------------------|-----13-15-13--------|
|-------12-14-12----12---|-14-------------14---|
|----------------14------|---------------------|
|------------------------|---------------------|
|------------------------|---------------------|
|
|  Q     E  E  E  E  E E    Q   E  E  E E  E E
|------------------------|---------------------|
|------------------------|---------------------|
|--5---------------------|--5------------------|
|--5---------------------|--5------------------|
|--3-----3--3--3--3--3-3-|--3---3--3--3-3--3-3-|
|------------------------|---------------------|
   E  E  E  E  E  E  E  E    E  E  E  E  E  E  E  E
|-------------------------|-------------------------|
|-13-15-13----------------|-------------------------|
|----------12-14-12----12-|-14-12-------------------|
|-------------------14----|-------12-14-12----12-14-|
|-------------------------|----------------14-------|
|-------------------------|-------------------------|
|
|  Q     E  E  E  E  E  E    Q     E  E  E  E  E  E
|-------------------------|-------------------------|
|-------------------------|-------------------------|
|-------------------------|-------------------------|
|--5----------------------|--5----------------------|
|--5----------------------|--5----------------------|
|--3-----3--3--3--3--3--3-|--3-----3--3--3--3--3--3-|
                          ~~~
   E  E  E  E  E E  q     Q   +Q    E E E E
|----------------------|--------------------|
|----------------------|--------------------|
|----------------------|----------------5-7-|
|-12s10-12-10----9-10--|--9---(9)\----7-----|
|-------------12-------|--------------------|
|----------------------|--------------------|
|
|  W                     +W
|----------------------|--------------------|
|----------------------|--------------------|
|----------------------|--------------------|
|--5-------------------|-(5)----------------|
|--5-------------------|-(5)----------------|
|--3-------------------|-(3)----------------|
  Q    +S  S E Q   E E   E E E E E E E E
|----------------------|-----------------|
|----------------------|-----------------|
|-7b9r=(7)p5---5-----5-|-7-5-4-5-4---4-5-|
|------------7-----7---|-----------5-----|
|----------------------|-----------------|
|----------------------|-----------------|
|
| Q     E    E E E E E   Q   E E E E E E
|----------------------|-----------------|
|----------------------|-----------------|
|-2--------------------|-2---------------|
|-2--------------------|-2---------------|
|-0-----0----0-0-0-0-0-|-0---0-0-0-0-0-0-|
|----------------------|-----------------|
                         ~~~~
  Q  E E  Q    Q        +H        E E Q
|---------------------|--------------------|
|---------------------|--------------------|
|-7--5-7-<7>---7b9====|=(7)r------7p5------|
|---------------------|---------------7----|
|---------------------|---------------7----|
|---------------------|--------------------|
|
| Q  E E  E  E E    E    Q    E E E E E E
|---------------------|--------------------|
|---------------------|--------------------|
|---------------------|--------------------|
|-3-------------------|--3-----------------|
|-3-------------------|--3-----------------|
|-1--1-1--1--1-1----1-|--1----1-1-1-1-1-1--|
  E E E E Q   E E   E E E E Q   Q
|---------5-----5-|-8-5-8-5-----5---|
|-5-8-5-8-----8---|---------8-------|
|-----------------|-----------------|
|-----------------|-----------------|
|-----------------|-----------------|
|-----------------|-----------------|
|
| Q   E E E E E E   Q   E E E E E E
|-----------------|-----------------|
|-----------------|-----------------|
|-2---------------|-2---------------|
|-2---------------|-2---------------|
|-0---0-0-0-0-0-0-|-0---0-0-0-0-0-0-|
|-----------------|-----------------|
                            ~~~~~~~~~~
             |---3----|
  E     +E  +E  +E    E Q   Q     +Q   +Q      Q    Q
|-8b10==(8)-(8)r(8)p==5-----5---|-(5)--(5)\-------------|
|-----------------------8-------|-------------/8---10---|
|-------------------------------|-----------------------|
|-------------------------------|-----------------------|
|-------------------------------|-----------------------|
|-------------------------------|-----------------------|
|
| Q          E      E   E E E E    Q    E   E  E E  E E
|-------------------------------|-----------------------|
|-------------------------------|-----------------------|
|-------------------------------|-----------------------|
|-3-----------------------------|--3--------------------|
|-3-----------------------------|--3--------------------|
|-1----------1------1---1-1-1-1-|--1----1---1--1-1--1-1-|
  E E  E E  E E  E E   E  E E E E E  E E
|-8-7----------------|-------------------|
|-----10-8-10-8------|-8-----------------|
|---------------10-9-|---10-9-7-9-7------|
|--------------------|--------------10-9-|
|--------------------|-------------------|
|--------------------|-------------------|
|
| Q    E E  E E  E E   Q    E E E E  E E
|--------------------|-------------------|
|--------------------|-------------------|
|-2------------------|-2-----------------|
|-2------------------|-2-----------------|
|-0----0-0--0-0--0-0-|-0----0-0-0-0--0-0-|
|--------------------|-------------------|
  E  E E E E E  E E   E  E E E Q   E  E
|-------------------|-------------------|
|-------------------|-------------------|
|-7-----------------|-------------------|
|---10-9-7-9-7------|-7------------7-10-|
|--------------10-8-|---10-8-7-8--------|
|-------------------|-------------------|
|
| Q    E E E E  E E   Q    E E E E E  E
|-------------------|-------------------|
|-------------------|-------------------|
|-5-----------------|-5-----------------|
|-5-----------------|-5-----------------|
|-3----3-3-3-3--3-3-|-3----3-3-3-3-3--3-|
|-------------------|-------------------|
  E  E E  E E  E E  E   E E E E E  E E E
|---------------------|------------------|
|---------------------|-----8---8-10-8---|
|-7---------7---------|-7-9---9--------9-|
|---10-7-10---10-7-10-|------------------|
|---------------------|------------------|
|---------------------|------------------|
|
|      PM----------|        PM------------
| Q    E  E E  E E  E   Q   E E E  E E E
|---------------------|------------------|

Продолжаем грести бабос на ботах в Telegram.
Только в этот раз есть вариант автоматизировать это дело, привлекая рефералов. Вы можете заработать если »

|---------------------|------------------| |---------------------|------------------| |-5-------------------|-5----------------| |-5-------------------|-5----------------| |-3----3--3-3--3-3--3-|-3---3-3-3--3-3-3-| E E E E E E E E E E E E E E E E |------8-10-8----8-10-|-12-10-12-10-------------| |-8-10--------10------|-------------10-12-10-12-| |---------------------|-------------------------| |---------------------|-------------------------| |---------------------|-------------------------| |---------------------|-------------------------| | |--------------------------------------------| | E E E E E E E E E E E E E E E E |---------------------|-------------------------| |---------------------|-------------------------| |---------------------|-------------------------| |---------------------|-------------------------| |---------------------|-------------------------| |-3--3-3--3-3--3-3--3-|--3--3--3--3--3--3--3--3-| E E E E E E E E E E E E E E E E |-12----------------------|-12----------------------| |----13-12-10-12-13-12-13-|----13-12-10-12-13-12-13-| |-------------------------|-------------------------| |-------------------------|-------------------------| |-------------------------|-------------------------| |-------------------------|-------------------------| | | PM------------| PM------------| | Q E E E E E E Q E E E E E E |-------------------------|-------------------------| |-------------------------|-------------------------| |--2----------------------|--2----------------------| |--2----------------------|--2----------------------| |--0-----0--0--0--0--0--0-|--0-----0--0--0--0--0--0-| |-------------------------|-------------------------| E E E E E E E E E E E E E E E E |-12----------------------|-12----------------------| |----13-12-10-12-13-12-13-|----13-12-10-12-13-12-13-| |-------------------------|-------------------------| |-------------------------|-------------------------| |-------------------------|-------------------------| |-------------------------|-------------------------| | | PM------------| PM------------| | Q E E E E E E Q E E E E E E |-------------------------|-------------------------| |-------------------------|-------------------------| |-------------------------|-------------------------| |--3----------------------|--3----------------------| |--3----------------------|--3----------------------| |--1-----1--1--1--1--1--1-|--1-----1--1--1--1--1--1-| E E E E E E E E E E E E E E E E |-12----------------------|-12----------------------| |----13-12-10-12-13-12-13-|----13-12-10-12-12-12-12-| |-------------------------|-------------------------| |-------------------------|-------------------------| |-------------------------|-------------------------| |-------------------------|-------------------------| | | PM------------| PM------------| | Q E E E E E E Q E E E E E E |-------------------------|-------------------------| |-------------------------|-------------------------| |--2----------------------|--2----------------------| |--2----------------------|--2----------------------| |--0-----0--0--0--0--0--0-|--0-----0--0--0--0--0--0-| |-------------------------|-------------------------| ~~~~~~~~~~~ Q Q Q Q +Q +Q Q Q |-13--12---13---13---|-(13)--(13)\---/13---12---| |--------------------|--------------------------| |--------------------|--------------------------| |--------------------|--------------------------| |--------------------|--------------------------| |--------------------|--------------------------| | | PM----------| PM-------------| | Q E E E E E E Q E E E E E E |--------------------|--------------------------| |--------------------|--------------------------| |--------------------|--------------------------| |--3-----------------|---3----------------------| |--3-----------------|---3----------------------| |--1---1-1--1-1--1-1-|---1-----1---1---1-1--1-1-| Q E E Q E E Q Q Q Q |-15--13-12------------|--------------------| |-----------13---12-13-|-12-------12---13---| |----------------------|-----14-------------| |----------------------|--------------------| |----------------------|--------------------| |----------------------|--------------------| | | PM-----------| PM----------| | Q E E E E E E Q E E E E E E |----------------------|--------------------| |----------------------|--------------------| |--2-------------------|--2-----------------| |--2-------------------|--2-----------------| |--0---0--0--0-0--0--0-|--0---0-0--0-0--0-0-| |----------------------|--------------------| ~~~~~~~~~~~ Q Q Q Q +Q +Q Q Q |-/17--15---17---17---|-(17)--(17)\------------| |---------------------|---------------xS==17---| |---------------------|------------------------| |---------------------|------------------------| |---------------------|------------------------| |---------------------|------------------------| | | PM----------| PM-----------| | Q E E E E E E Q E E E E E E |---------------------|------------------------| |---------------------|------------------------| |---5-----------------|---5--------------------| |---5-----------------|---5--------------------| |---3---3-3--3-3--3-3-|---3-----3---3-3-3--3-3-| |---------------------|------------------------| ~~~~~~~~~~~~~~~~~~~~~~ W +H. Q |-----------------|--------------------| |-15--------------|-(15)----------13---| |-----------------|--------------------| |-----------------|--------------------| |-----------------|--------------------| |-----------------|--------------------| | | PM--------| PM---------| | Q E E E E E E Q E E E E E E |-----------------|--------------------| |-----------------|--------------------| |-----------------|--------------------| |--5--------------|---5----------------| |--5--------------|---5----------------| |--3--3-3-3-3-3-3-|---3---3-3-3-3--3-3-| ~~~~ ~~~~ +H. Q +H. +Q |--------------------|-----------------------| |-(13)----------12---|-(12)----------(12)\---| |--------------------|-----------------------| |--------------------|-----------------------| |--------------------|-----------------------| |--------------------|-----------------------| | | PM---------| PM------------| | Q E E E E E E Q E E E E E E |--------------------|-----------------------| |--------------------|-----------------------| |--------------------|-----------------------| |---3----------------|---2-------------------| |---3----------------|---2-------------------| |---1---1-1-1-1--1-1-|---0---0-0-0-0---0---0-| Guitar Solo 2 E E E E E E E E E E E E E E Q |-10p7---10p7---10p7-|---10p7---10p7-----| |------7------7------|-7------7------7---| |--------------------|-------------------| |--------------------|-------------------| |--------------------|-------------------| |--------------------|-------------------| | | PM----------| PM---------| | Q E E E E E E Q E E E E E E |--------------------|-------------------| |--------------------|-------------------| |--4-----------------|-4-----------------| |--4-----------------|-4-----------------| |--2---2--2-2-2--2-2-|-2----2-2--2-2-2-2-| |--------------------|-------------------| ~~~~~~~~~~ Q. E +Q Q +H. E E |-12-----12-(12)---9---|-(9)----------9-10--| |----------------------|--------------------| |----------------------|--------------------| |----------------------|--------------------| |----------------------|--------------------| |----------------------|--------------------| | | PM------------| PM--------| | Q E E E E E E Q E E E E E E |----------------------|--------------------| |----------------------|--------------------| |--2-------------------|--2-----------------| |--2-------------------|--2-----------------| |--0---0--0---0--0-0-0-|--0---0-0-0-0-0--0--| |----------------------|--------------------| Q E E Q E E Q E E Q E E |-12--10-9------9-10-|-12--10-9------9-10-| |----------12--------|----------12--------| |--------------------|--------------------| |--------------------|--------------------| |--------------------|--------------------| |--------------------|--------------------| | | PM---------| PM---------| | Q E E E E E E Q E E E E E E |--------------------|--------------------| |--------------------|--------------------| |--------------------|--------------------| |--5-----------------|--5-----------------| |--5-----------------|--5-----------------| |--3---3-3--3-3-3--3-|--3---3-3--3-3-3--3-| ~~~~~~~~~~ Q E E +Q Q +H +Q E E |-10--9-10-(10)---9---|-(9)------(9)\----------| |---------------------|-------------------/15--| |---------------------|------------------------| |---------------------|------------------------| |---------------------|------------------------| |---------------------|------------------------| | | PM------------| PM-----------| | Q E E E E E E Q E E E E E E |---------------------|------------------------| |---------------------|------------------------| |---------------------|------------------------| |--4------------------|--4---------------------| |--4------------------|--4---------------------| |--2--2--2---2--2-2-2-|--2---2-2--2---2-2---2--| ~~~ ~~ H. Q Q. E +Q Q W |-------------------|-18-----15-(15)\---------|-----------------| |-15-----------15---|-------------------/15---|-14--------------| |-------------------|-------------------------|-----------------| |-------------------|-------------------------|-----------------| |-------------------|-------------------------|-----------------| |-------------------|-------------------------|-----------------| | | PM---------| PM---------------| PM--------| | Q E E E E E E Q E E E E E E Q E E E E E E |-------------------|-------------------------|-----------------| |-------------------|-------------------------|-----------------| |--4----------------|--4----------------------|--2--------------| |--4----------------|--4----------------------|--2--------------| |--2---2-2-2-2--2-2-|--2---2--2---2---2---2-2-|--0--0-0-0-0-0-0-| |-------------------|-------------------------|-----------------| +Q. E +Q Q Q. E +Q Q |-------------------------|--------14-(14)----------| |-(14)\----12-(12)---14---|-15---------------15-----| |-------------------------|-------------------------| |-------------------------|-------------------------| |-------------------------|-------------------------| |-------------------------|-------------------------| | | PM-------------| PM-------------| | Q E E E E E E Q E E E E E E |-------------------------|-------------------------| |-------------------------|-------------------------| |---2---------------------|-------------------------| |---2---------------------|--5----------------------| |---0----0--0---0--0--0-0-|--5----------------------| |-------------------------|--3---3--3---3--3--3-3---| ~~~~~~~~~~~~~~~~~~~~~ Q. E +Q Q W +H +Q Q |----------------------|----------------|-----------------0---| |-14-----12-(12)S==8---|-7--------------|-(7)------(7)\-------| |----------------------|----------------|---------------------| |----------------------|----------------|---------------------| |----------------------|----------------|---------------------| |----------------------|----------------|---------------------| | | PM------------| PM--------| PM-----------| | Q E E E E E E Q E E E E E E Q E E E E E E |----------------------|----------------|---------------------| |----------------------|----------------|---------------------| |----------------------|----------------|---------------------| |--5-------------------|-4--------------|--4------------------| |--5-------------------|-4--------------|--4------------------| |--3---3--3---3--3-3-3-|-2--2-2-2-2-2-2-|--2---2-2--2---2-2-2-| ~~~~~ Q. E +Q Q H +E E E E |--7--------7------(7)-----7----|-6-------(6)\-------| |-10b12----10b12==(10)r---10b12-|-9b11r===(9)\-------| |-------------------------------|--------------------| |-------------------------------|----------------5-6-| |-------------------------------|--------------7-----| |-------------------------------|--------------------| | | Q E E +E E Q W |-------------------------------|--------------------| |-------------------------------|--------------------| |-------------------------------|--------------------| |--5--------5------(5)-----5----|-4------------------| |--5--------5------(5)-----5----|-4------------------| |--3--------3------(3)-----3----|-2------------------| Guitar Solo 3 Q E E Q E E E E E E +E E E E Q E E Q E E E E E E +E E E E |----------------|-------------------|----------------|--------------------| |----------------|-------------------|----------------|--------------------| |----------------|-------------------|----------------|--------------------| |-7--5---5-----5-|-7-5---7-(7)---5-6-|-7--5---5-----5-|-7-5---7-(7)---5-6--| |------7-----7---|-----7-------7-----|------7-----7---|-----7-------7------| |----------------|-------------------|----------------|--------------------| | | PM--------| PM----------| PM--------| PM----------| | Q E E E E E E Q E E E E E E Q E E E E E E Q E E E E E E |----------------|-------------------|----------------|--------------------| |----------------|-------------------|----------------|--------------------| |-2--------------|-2-----------------|----------------|--------------------| |-2--------------|-2-----------------|-3--------------|-3------------------| |-0--0-0-0-0-0-0-|-0---0-0--0--0-0-0-|-3--------------|-3------------------| |----------------|-------------------|-1--1-1-1-1-1-1-|-1---1-1--1--1-1-1--| Q E E Q E E E E E E +E E E E Q E E Q E E E E E E +E E E E |----------------|-------------------|----------------|-------------------| |----------------|-------------------|----------------|-------------------| |----------------|-------------------|----------------|---------------5-7-| |-7--5---5-----5-|-7-5---7-(7)---5-6-|-7--5---5-----5-|-7-5---7-(7)-7-----| |------7-----7---|-----7-------7-----|------7-----7---|-----7-------------| |----------------|-------------------|----------------|-------------------| | | PM--------| PM----------| PM--------| PM----------| | Q E E E E E E Q E E E E E E Q E E E E E E Q E E E E E E |----------------|-------------------|----------------|-------------------| |----------------|-------------------|----------------|-------------------| |-2--------------|-2-----------------|----------------|-------------------| |-2--------------|-2-----------------|-3--------------|-3-----------------| |-0--0-0-0-0-0-0-|-0---0-0--0--0-0-0-|-3--------------|-3-----------------| |----------------|-------------------|-1--1-1-1-1-1-1-|-1---1-1--1--1-1-1-| E +E E E Q E E E E E E +E E E E |-----------------------|-------------------| |-----------------------|-------------------| |-7b9==(7)r-5---5-----5-|-7-5---7-(7)---5-7-| |-------------7-----7---|-----7-------7-----| |-----------------------|-------------------| |-----------------------|-------------------| | | PM--------| PM----------| | Q E E E E E E Q E E E E E E |-----------------------|-------------------| |-----------------------|-------------------| |-2---------------------|-2-----------------| |-2---------------------|-2-----------------| |-0---------0-0-0-0-0-0-|-0---0-0--0--0-0-0-| |-----------------------|-------------------| E +E E E Q E E E E E E +E E E E |---------------------|-------------------| |---------------------|-------------------| |-7b9r(7)-5---5-----5-|-7-5---7-(7)---5-6-| |-----------7-----7---|-----7-------7-----| |---------------------|-------------------| |---------------------|-------------------| | | PM--------| PM----------| | Q E E E E E E Q E E E E E E |---------------------|-------------------| |---------------------|-------------------| |-5-------------------|-5-----------------| |-5-------------------|-5-----------------| |-3-------3-3-3-3-3-3-|-3---3-3--3--3-3-3-| |---------------------|-------------------| |--3---| Q +E E E Q E E E E E E +E E Q |------------------------|-------------------| |------------------------|-------------------| |-7b9r=(7)-5-----5-----5-|-7-5---7-(7)---5---| |--------------7-----7---|-----7-------7-----| |------------------------|-------------------| |------------------------|-------------------| | | PM-------------| PM----------| | Q E E E E E E Q E E E E E E |------------------------|-------------------| |------------------------|-------------------| |------------------------|-------------------| |-5----------------------|-5-----------------| |-5----------------------|-5-----------------| |-3-----3----3---3-3-3-3-|-3---3-3--3--3-3-3-| |--3--| E +Q E +Q E +E H +Q E +E E |-----------------------------------|-----------------------| |-----------------------------------|-----------------------| |-7b9==(7)r---7b9==(7)r---7b9==(7)r-|-7b9=====(7)--7r(7)p5--| |-----------------------------------|-----------------------| |-----------------------------------|-----------------------| |-----------------------------------|-----------------------| | | Q E E +E E Q W |-----------------------------------|-----------------------| |-----------------------------------|-----------------------| |-----------------------------------|-----------------------| |-3-----------3----(3)----3---------|-2---------------------| |-3-----------3----(3)----3---------|-2---------------------| |-1-----------1----(1)----1---------|-0---------------------| Guitar Solo 4 Half Time Q=125 F5 E5 Gtr II W W | | / / ~~~~~~ Q +H +E +E Q. E +Q +E S S |-------------------------|----------------------| |-------------------------|----------------------| |-7b9=====(7)-----(7)r(7)-|-5--------------------| |-------------------------|------9-(9)--(9)\-5S9-| |-------------------------|----------------------| |-------------------------|----------------------| A5 W | / |3| E. S E E +E S S E S S S |----------------------10-8----8h10p8---| |-10---8-10--10--(10)-------10----------| |---------------------------------------| |---------------------------------------| |---------------------------------------| |---------------------------------------| G5 W | / ~~~~~~~~ E +Q. S +E. +E +S +S |-10b12==(10)r---10b12==(10)-(10)-(10)r(10)-| |-------------------------------------------| |-------------------------------------------| |-------------------------------------------| |-------------------------------------------| |-------------------------------------------| F5 G5 W W | | / / ~~ |-3-| S +S S S S E E +E E E E E S S +Q +E E E E |-10b12==(10)r-10p8------------------------------|-12----12-(12)--(12)\-----12-----| |-------------------8-10--10--(10)\--10--13--10--|----------------------/13----13--| |------------------------------------------------|---------------------------------| |------------------------------------------------|---------------------------------| |------------------------------------------------|---------------------------------| |------------------------------------------------|---------------------------------| A5 G5 W W | | / / ~~~~~~~ E E E E +E E S S E E. S E E +Q +E E |--------------------------10----|----------------------------| |-12-10-12-10-(10)\-(5)S12----12-|-13--12-13-12-(12)--(12)\---| |--------------------------------|----------------------------| |--------------------------------|----------------------------| |--------------------------------|----------------------------| |--------------------------------|----------------------------| F5 G5 W W | | / / ~~~~~~~ E. S E E +Q. E Q +Q Q E E |-17------------------15-|---------------------------| |-----15-17-17-(17)------|-17--(17)b18r=17--15s13----| |------------------------|---------------------------| |------------------------|---------------------------| |------------------------|---------------------------| |------------------------|---------------------------| ~~ ~~~~~~~ E S S E E +E E E E E E E E +Q +E E |--------------------------12----|-----------------------------| |-13-12-12-13-13-(13)\-/13----13-|-12-10-12-12-(12)---(12)\-10-| |--------------------------------|-----------------------------| |--------------------------------|-----------------------------| |--------------------------------|-----------------------------| |--------------------------------|-----------------------------| | | Gtr II | PM---| PM--| PM PM| PM-| PM | E E E E E E E E E E E E E E E E |--------------------------------|-----------------------------| |--------------------------------|-----------------------------| |--------------------------------|-----------------------------| |--7-----------7------------7----|--5--------5----------5------| |--7-----------7------------7----|--5--------5----------5------| |--5--5-----5--5---5-----5--5--5-|--3--3--3--3---3--3---3----3-| E. S +E Q E E E E. S +E E +E S S E E |-10----8-(8)--------------|------------------------------| |-------------10\---/5-8-5-|-6----5-(5)-------------------| |--------------------------|------------7-(7)\-7s9-12-9---| |--------------------------|------------------------------| |--------------------------|------------------------------| |--------------------------|------------------------------| | | PM--| PM| PM PM--| PM--| PM | E E E E E E E E E E E E E E E E |--------------------------|------------------------------| |--------------------------|------------------------------| |--------------------------|------------------------------| |--3-----------3-------3---|-5----------5-----------5-----| |--3-----------3-------3---|-5----------5-----------5-----| |--1--1----1---1--1--1-1-1-|-3--3----3--3--3---3----3-3---| E S S +S S E +E S S S S S S |---------------------------10-8----8-10-8-| |-10----10-(10)---10--(10)-------10--------| |------------------------------------------| |------------------------------------------| |------------------------------------------| |------------------------------------------| | | PM---| PM--| PM | E E E E E E E E |------------------------------------------| |------------------------------------------| |------------------------------------------| |--7---------------7--------------7--------| |--7---------------7--------------7--------| |--5--5------5-----5----5----5----5----5---| S +S S S +S S E +Q. E |-10b12==(10)r---8-(8)---10b12===(10)r----------| |-----------------------------------------------| |---------------------------------------------0-| |-----------------------------------------------| |-----------------------------------------------| |-----------------------------------------------| | | PM--| PM---| PM | E E E E E E E E |-----------------------------------------------| |-----------------------------------------------| |-----------------------------------------------| |--5----------------------5----------------5----| |--5----------------------5----------------5----| |--3-----------3----3-----3--------3----3--3--3-| D.S.S. al Dbl. Coda E. S +E E E. S +E E Q +E +E +Q E S S |-8-----5-(5)--------------------|-------------------------------------|| |-8-----5-(5)--8--6-----5-(5)----|-------------------------------------|| |------------------------------7-|-7b9======(7)r=(7)--(7)-----7--5s(2)-|| |--------------------------------|-------------------------------------|| |--------------------------------|-------------------------------------|| |--------------------------------|-------------------------------------|| | | PM--| PM--| PM PM-| PM--| PM | E E E E E E E E E E E E E E E E |--------------------------------|-------------------------------------|| |--------------------------------|-------------------------------------|| |--------------------------------|-------------------------------------|| |-3------------3-----------3-----|-5--------------5-----------5--------|| |-3------------3-----------3-----|-5--------------5-----------5--------|| |-1---1----1---1--1---1----1---1-|-3-----3---3----3----3---3--3--3-----|| Out-Chorus Q=136 && Gtr V W +W W +W | | | | o / o / Gtr I PM| PM| E E Q E E E E +H E E Q E E Q E E E E +H E E Q 4x ||-----------------|----------------|----------------|-----------------|| ||o----------------|----------------|----------------|----------------o|| ||-----------------|----------------|-----2----------|-----------------|| ||------2--4-5-4-5-|-(5)----4-5-4---|-----2--4-5-4-5-|-(5)-------------|| ||o-----2--------3-|-(3)------------|-0-0-0--------3-|-(3)----5-7-5---o|| ||--0-0-0----------|----------------|----------------|-----------------|| | | Gtr II | PM| PM--| PM| PM| PM--| PM| | E E Q E E E E +H E E Q E E Q E E E E +H E E Q 4x ||-----------------|----------------|----------------|-----------------|| ||o----------------|----------------|----------------|----------------o|| ||---------------5-|-(5)--------9\--|-----2--------5-|-(5)--------4----|| ||------2--------5-|-(5)--------9\--|-----2--------5-|-(5)--------4----|| ||o-----2------2-3-|-(3)----7-7-7\--|-0-0-0------0-3-|-(3)----2-2-2---o|| ||--0-0-0--3-3-----|----------------|--------0-0-----|-----------------|| Repeat Riff 5 PM| PM------| PM| E E E E E E E E +E E E E E E Q E E E E E E E E +E E E E +H |-----------------|------------------|-----------------|------------------| |-----------------|------------------|-----------------|------------------| |-----------------|------------------|-----------------|------------------| |-----5---4-5-4---|---------------2--|-----5---4-5-4-5-|-(5)-4-5-7-(7)----| |-----7---------3-|-(3)-2-0-------2--|-----7---------3-|-(3)-----5-(5)----| |-0-0-------------|---------3-2-1-0--|-0-0-------------|------------------| | | PM| PM PM PM------| PM| PM PM | E E E E E E E E +E E E E E E Q E E E E E E E E +E E E E +H |-----------------|------------------|-----------------|------------------| |-----------------|------------------|-----------------|------------------| |-----------------|------------------|-----------------|------------------| |-----9---9-9---5-|-(5)-----------2--|-----9---9-9---5-|-(5)-4-5-7-(7)----| |-----7---7-7-5-3-|-(3)-2-0-------2--|-----7---7-7-5-3-|-(3)--------------| |-0-0---0---------|---------3-2-1-0--|-0-0---0---------|------------------| Gtrs I, II PM------------| H H H H E E E E E E E E E. S +E E Q. E |-----------|-----------|-----------------|-----------------------| |-----------|-----------|-----------------|-----------------------| |-----------|-3----2----|-----------------|-3---5-(5)--3--2-------| |-2----5----|-3----2----|-----------------|-3---5-(5)--3--2-------| |-2----5----|-1----0----|-2-2-2-2-5-5-5-5-|-1---3-(3)--1--0-------| |-0----3----|-----------|-0-0-0-0-3-3-3-3-|-----------------------| Outro Faster Q.=150 12/8 Gtr I PM----------------------------------------| PM--------------------| E E E E E E E E E E E E E E E E E E E E E Q. E E E E E E E E E E E E |-------------------------|------------------------|---------------------------| |-------------------------|-------------------0----|---------------------------| |-------------------------|-------------------0----|---------------------------| |-------------------------|-------------------0----|---------------------------| |-0-0-0-3-0-0---------1-3-|-0-0-0-3-0-0-5-0-0------|-0-0-0-3-0-0-5-------1-3---| |-------------0-1-2-3-----|------------------------|---------------0-1-3-------| Gtrs I, II PM--------| PM----------------------- E E E E E E E E E E E E E E E E E E E E E E E E |-------------------------||--------------------------| |-------------------------||o-------------------------| |-------------------------||--------------------------| |-------------7-5-3-------||--------------------------| |-0-0-0-3-0-0-------7-5-3-||o-0-0-0-3-0-0-5-------1-3-| |-------------------------||----------------0-1-3-----| 1. -----------------| E E E E E E E E E Q. |--------------------------|| |-------------------0-----o|| |-------------------0------|| |-------------------0------|| |-0-0-0-3-0-0-5-0-0-------o|| |--------------------------|| 2. PM--------| PM--| PM--| PM--| PM--| E E E E E E E E E E E E Q. E E E Q. E E E Q. E E E Q. E E E |-------------------------||------------------------|-------------------------|| |-------------------------||o-----------------------|------------------------o|| |-------------------------||------------------------|-------------------------|| |-------------7-5-3-------||--7----------5----------|-------------------------|| |-0-0-0-3-0-0-------7-5-3-||o-5----5-5-5-3----3-3-3-|-5----------5-----------o|| |-------------------------||------------------------|-3----3-3-3-3----3-3-3---|| E E E E E E E E E E E E E E E E E E E E E Q. |-------------------------|------------------------*| |-------------------------|------------------------*| |-------------------------|------------------------*| |---------5-2-------------|-------2-1-----1-2-4----*| |-----3-2-----5-2---3-2---|---2-3-----2-3----------*| |-0-5-------------5-----5-|-3----------------------*|








О сайтеАккордыХит-парадПоискУроки ФорумыИщу песню
ПрограммыСвежачок-сПодпискаСтатьи
Яндекс.Метрика