Табулатура Эпидемия | Я Молился На Тебя  (2) гитара табулатуры уроки тексты песен Эпидемия текст lyrics песня аккорды песни ноты нота электрогитара струна  
   А Б В Г Д Е Ж З И К Л М Н О П Р С Т У Ф Х Ч Ш Ы Э Ю Я       Разные песни
1-9 A B C D E F G H I J K L M N O P Q R S T U V W Y Z      Все исполнители

    



группа Эпидемия, Табулатура песни Я Молился На Тебя (2)

Группа: Эпидемия - другие аккорды (138),   о группе (9 статей),   диски (6),   фотографии (18)
Табулатура песни: Я Молился На Тебя (2)
Просмотров: 1622
Подобрал: Кирилл (kirill_troy@pochta.ru)




    
                                   |-3-|
   E E E E  E E E E    E E E E  E  S S S E S S
|--------2--------2-|--------------------------|
|------3--------3---|--------2--3--2h3p2-0-2s3-|
|----2--------2-----|------2-------------------|
|--0----------------|----2---------------------|
|-------------------|--0-----------------------|
|-----------3-------|--------------------------|
|
|  Q   E E  Q   E E    Q   E E +E  Q       E
|------2-3--5---3-2-|--------------------------|
|-19-------15-------|--3---5-3-(3)-5-----------|
|-19-------16-------|-18-----------------------|
|-19-------17-------|-19-----------------------|
|-------------------|-19-----------------------|
|-------------------|--------------------------|
   H        H          W
   E E E E  E E E E    E E E E  E E E E
|-------------------|-------------5-----|
|------3--------2---|------3--------3---|
|--------4--------2-|--------0--------4-|
|----4--------2-----|----2--------------|
|--2--------0-------|-------------------|
|-------------------|--0--------3-------|
|
|  W                   H        E E E E
|-------------------|-----------5-3-2-3-|
|-15-------14-------|-15-------22-------|
|-16-------14-------|-16-------19-------|
|-16-------14-------|-17-------21-------|
|-------------------|----------22-------|
|-------------------|-------------------|
   H        H          H        H
   Pre-Chorus
    $
     Q       E   S S Q       E   S S
||---3-------3---3-3-----------------|
||o--3-------3---3-3-2-------2---2-2-|
||---0-------0---0-0-2-------2---2-2-|
||---0-------0---x-x-2-------2---2-2-|
||o--2-------2---x-x-0-------0---x-x-|
||---3-------3---3-3-----------------|
|
|    Gtr IV
|    S S S S S S S S S S S S S S S S
||---3-------3-------5-------5-------|
||o----3---3---3---3---5---5---5---5-|
||-------4-------4-------6-------6---|
||-----------------------------------|
||o----------------------------------|
||-----------------------------------|
 1.                                   2.
  Q       E   S S Q       E   S S     S S S S S S S S H
|-2-------2---2-2------------------||-2-2-2-2-2-2-2-2-2--------|
|-3-------3---3-3-2-------2---2-2-o||-2-2-2-2-2-2-2-2-2--------|
|-4-------4---4-4-2-------2---2-2--||-3-3-3-3-3-3-3-3-3--------|
|-4-------4---x-x-2-------2---2-2--||-4-4-x-x-4-4-x-x-4--------|
|-2-------2---x-x-0-------x---x-x-o||-4-4-x-x-4-4-x-x-4--------|
|----------------------------------||-2-2-2-2-2-2-2-2-2--------|
|
| S S S S S S S S S S S S S S S S     S S S S S S S S S Q..
|-7-------7-------5-------5--------||-2-------2-------2--------|
|---7---7---7---7---5---5---5---5-o||---2---2---2---2----------|
|-----7-------7-------6-------6----||-----3-------3------------|
|----------------------------------||--------------------------|
|---------------------------------o||--------------------------|
|----------------------------------||--------------------------|
   Chorus
    $$
    Gtr V
      H     H       Q          Q           H
||---------------|------------------------------|
||o--------------|------------------------------|
||---------------|------------------------------|
||----------2----|--4---------------------------|
||o---2-----0----|--2----------4-----------5----|
||----0----------|-------------2-----------3----|
|
|   Gtr II
|     H     H       S  S  S  S S  S  S  S  H
||---12----12----|-10----------9----------10----|
||o--12----14----|----12----12---10----10-12----|
||---12----14----|-------11---------11----12----|
||---------------|------------------------------|
||o--------------|------------------------------|
||---------------|------------------------------|
 1.
                 PM----------------------------|
   H     H       S S S S S S S S S S S S S S S S
|-------------|------------------------------------||
|-------------|-----------------------------------o||
|-------------|------------------------------------||
|-------------|------------------------------------||
|--2-----4----|--2-2-2-2-2-2-2-2-2-2-2-2-2-2-2-2--o||
|--0-----2----|------------------------------------||
|
|  H     H       W
|-12-----9----|-10---------------------------------||
|-12----11----|-12--------------------------------o||
|-12----11----|-11---------------------------------||
|-------------|------------------------------------||
|-------------|-----------------------------------o||
|-------------|------------------------------------||
  2.
                                2/4
                                  PM------------|
   H     Q          Q             S S S S S S S S
|------------------------------|------------------|
|------------------------------|------------------|
|------------------------------|------------------|
|--------4---------------------|------------------|
|--2-----2----------4----------|------------------|
|--0----------------2----------|--3-3-3-3-3-3-3-3-|
|
|  H     S  S  S  S S  S  S  S    H
|-12----10----------9----------|-10---------------|
|-12-------12----12---11----11-|-12---------------|
|-12----------11---------11----|-12---------------|
|------------------------------|------------------|
|------------------------------|------------------|
|------------------------------|------------------|
                        To CodTo Dbl. Coda
 4/4
                                   >
   H     Q          Q              W
|-------------------------------|-------------|
|-------------------------------|-------------|
|-------------------------------|-------------|
|--------4----------------------|--4----------|
|--2-----2----------4-----------|--2----------|
|--0----------------2-----------|-------------|
|
|  H     S  S  S  S S  S  S  S     W
|-12----10----------9-----------|-------------|
|-12-------12----12---11----11--|-12----------|
|-12----------11---------11-----|-------------|
|-------------------------------|-------------|
|-------------------------------|-------------|
|-------------------------------|-------------|
 Verse 2
  Gtr I
  E E E E E E E E   E E E E E E E E   E E E E E E E E   E E E E E E E E
|-----------------|-----------5-----|-----------------|-----------5------|
|-----3-------2---|-----3-------3---|-----3-------2---|-----3-------3----|
|-------4-------2-|-------0-------4-|-------4-------2-|-------0-------4--|
|---4-------2-----|---2-------------|---4-------2-----|---2--------------|
|-2-------0-------|-----------------|-2-------0-------|------------------|
|-----------------|-0-------3-------|-----------------|-0-------3--------|
                                |-3-|
  E E E E E E E E   E E E E  E  S S S E S S
|-------2-------2-|-------------------------|
|-----3-------3---|-------2--3--2h3p2p0-2s3-|
|---2-------2-----|-----2-------------------|
|-0---------------|---2---------------------|
|-----------------|-0-----------------------|
|---------3-------|-------------------------|
|
| Gtr II
| Q   E E Q   E E   Q   E E +E  Q       E
|-----2-3-5---3-2-|-----0-------0-----------|
|-----------------|-3-----3-(3)-------------|
|-----------------|-------------------------|
|-----------------|-------------------------|
|-----------------|-------------------------|
|-----------------|-------------------------|
  E E E E E E E E   E E E E E E E E
|-----------------|-----------5-----|
|-----3-------2---|-----3-------3---|
|-------4-------2-|-------0-------4-|
|---4-------2-----|---2-------------|
|-2-------0-------|-----------------|
|-----------------|-0-------3-------|
|
| W                 H       E E E E
|-----------------|---------5-3-2-3-|
|-----------------|-----------------|
|-----------------|-----------------|
|-----------------|-----------------|
|-----------------|-----------------|
|-----------------|-----------------|
                           ~~         ~
         |3|                      |3|
  Q.     S E a E Q   S S   Q.     S E H
|------------------------|------------------------|
|--------5-7-7h8-7---5h7p|=5----------------------|
|------------------------|--------6h7-6-----------|
|------------------------|------------------------|
|------------------------|------------------------|
|------------------------|------------------------|
|
| Gtr III
|                                       |-3-|
| E  E E E     E E E E     E  E E E   E S S S E E
|----3-----------2-------|------------------------|
|------5-----------3-----|--------2---3-2-3-2-0-2-|
|--------4-----------2---|------2-----------------|
|--------------0---------|----2-------------------|
|------------------------|-0----------------------|
|-0----------------------|------------------------|
                           ~~             ~~
         |3|                        |3-|
  Q.     S E a E Q   S S   Q.       S  E  H
|--------3-5-5h7-5---3h5p|=3-------------------|
|--------5-7-7h8-7---5h7p|=5------/10h12-10----|
|------------------------|---------------------|
|------------------------|---------------------|
|------------------------|---------------------|
|------------------------|---------------------|
|
| E  E E E     E E E E     E  E E   E     H
|----3-----------2-------|----------------5----|
|------5-----------3-----|----------5----------|
|--------4-----------2---|------2--------------|
|--------------0---------|----2----------------|
|------------------------|-0-------------------|
|-0----------------------|---------------------|
   E E E E  E E E E    E E E E  E E E E
|-------------------|-------------5-----|
|------3--------2---|------3--------3---|
|--------4--------2-|--------0--------4-|
|----4--------2-----|----2--------------|
|--2--------0-------|-------------------|
|-------------------|--0--------3-------|
|
| Gtr II
|  H        H          H        H
|-------------------|----------17-------|
|-15-------14-------|-15-------15-------|
|-16-------14-------|-16-------16-------|
|-16-------14-------|-17-------17-------|
|-------------------|-------------------|
|-------------------|-------------------|
   E E E E  E E E E    E E E E  E E E E
|-------------------|-------------5------|
|------3--------2---|------3--------3----|
|--------4--------2-|--------0--------4--|
|----4--------2-----|----2---------------|
|--2--------0-------|--------------------|
|-------------------|--0--------3--------|
|
|  H        H          H        H
|-------------------|----------17--------|
|-15-------14-------|-15-------15--------|
|-16-------14-------|-16-------16--------|
|-16-------14-------|-17-------17--------|
|-------------------|--------------------|
|-------------------|--------------------|
                                   |-3-|
   E E E E  E E E E    E E E E  E  S S S E S S
|--------2--------2-|--------------------------|
|------3--------3---|--------2--3--2h3p2p0-2s3-|
|----2--------2-----|------2-------------------|
|--0----------------|----2---------------------|
|-------------------|--0-----------------------|
|-----------3-------|--------------------------|
|
|  Q   E E  Q   E E    Q   E E +E  Q     E
|------2-3--5---3-2-|--------------------------|
|-19-------15-------|--3---5-3-(3)-5-----------|
|-19-------16-------|-18-----------------------|
|-19-------17-------|-19-----------------------|
|-------------------|-19-----------------------|
|-------------------|--------------------------|
   H        H          W
                          D.S. al Coda
   E E E E  E E E E    E E E E  E E E E
|-------------------|-------------5-----||
|------3--------2---|------3--------3---||
|--------4--------2-|--------0--------4-||
|----4--------2-----|----2--------------||
|--2--------0-------|-------------------||
|-------------------|--0--------3-------||
|
|  W                   H        E E E E
|-------------------|-----------5-3-2-3-||
|-15-------14-------|-15-------22-------||
|-16-------14-------|-16-------19-------||
|-16-------14-------|-17-------21-------||
|-------------------|----------22-------||
|-------------------|-------------------||
   H        H          H        H
                             Guitar Solo
  &
  B5                          B5                  A5
  Gtr V
   W                           H                   H
   |                           |                   |
   /                           /                   /
  Gtr VI
                               ~~~~~~~~~~~
                                                      |-3--|
   H.         S     +S   E     Q      +S   S  S S  E  S  S S E   E
|------------12b14r(12)-10--|-------------------9-10--9h10p9s7-----|
|---------------------------|-12-----(12)-10-12-----------------10-|
|---------------------------|--------------------------------------|
|---------------------------|--------------------------------------|
|---------------------------|--------------------------------------|
|---------------------------|--------------------------------------|
|
| Gtr II
|  W                           H                   H
|---------------------------|--------------------------------------|
|-12------------------------|-15------------------14---------------|
|---------------------------|-16------------------14---------------|
|---------------------------|-16------------------14---------------|
|---------------------------|--------------------------------------|
|---------------------------|--------------------------------------|
|
| Gtr I
|  W                           E  E    E      E    E  E      E   E
|---------------------------|--------------------------------------|
|---------------------------|----------3---------------------2-----|
|---------------------------|-----------------4------------------2-|
|---------------------------|-----4-------------------2------------|
|---------------------------|--2-------------------0---------------|
|---------------------------|--------------------------------------|
  E5                G5(type 2)
   H                 H
   |                 |
   /                 /
                     ~~
   Q.          +E    Q     S S S S
|----------------------------------|
|--8b10r=======(8)---8-----0-2-3-5-|
|----------------------------------|
|----------------------------------|
|----------------------------------|
|----------------------------------|
|
|  H                 H
|-------------------17-------------|
|-15----------------15-------------|
|-16----------------16-------------|
|-17----------------17-------------|
|----------------------------------|
|----------------------------------|
|
|  E     E  E   E    E  E  E   E
|-----------------------5----------|
|-----------3--------------3-------|
|---------------0--------------4---|
|--------2-------------------------|
|----------------------------------|
|--0-----------------3-------------|
  B5             A5                E5                G5(type 2)
   H              H                 H                 H
   |              |                 |                 |
   /              /                 /                 /
   Q     S S S S  Q      S S S S    S S S  S S S S S  S S S S S S S S
|--2-------------[5]-------------|------------------------------------|
|--------0-2-3-5---------0-2-3-0-|-12-0-0-10-0-0-8-0--7-0-0-8-0-0-7-0-|
|--------------------------------|------------------------------------|
|--------------------------------|------------------------------------|
|--------------------------------|------------------------------------|
|--------------------------------|------------------------------------|
|
|  H              H                 H                 H
|--------------------------------|-------------------17---------------|
|-15-------------14--------------|-15----------------15---------------|
|-16-------------14--------------|-16----------------16---------------|
|-16-------------14--------------|-17----------------17---------------|
|--------------------------------|------------------------------------|
|--------------------------------|------------------------------------|
|
|  E  E  E   E    E   E  E   E      E   E    E   E    E   E   E   E
|--------------------------------|------------------------5-----------|
|--------3---------------2-------|-----------3----------------3-------|
|------------4---------------2---|---------------0----------------4---|
|-----4---------------2----------|------2-----------------------------|
|--2--------------0--------------|------------------------------------|
|--------------------------------|--0-----------------3---------------|
  D5                                      G5(type 2)
   H                                       H
   |                                       |
   /                                       /
   S    S    S    S    S    S    S    S    S    S    S    S    S    S    S    S
|-14-------------15-------------17--------19-------------17-------------15---14---|
|------15---15--------15---15--------15--------15---15--------15---15-------------|
|---------------------------------------------------------------------------------|
|---------------------------------------------------------------------------------|
|---------------------------------------------------------------------------------|
|---------------------------------------------------------------------------------|
|
|  Q                   E         E         Q                   E         E
|----------------------2---------3---------5-------------------3---------2--------|
|-19--------------------------------------15--------------------------------------|
|-19--------------------------------------16--------------------------------------|
|-19--------------------------------------17--------------------------------------|
|---------------------------------------------------------------------------------|
|---------------------------------------------------------------------------------|
|  H                                       H
|
|  E         E         E         E         E         E         E         E
|--------------------------------2---------------------------------------2--------|
|----------------------3---------------------------------------3------------------|

Продолжаем грести бабос на ботах в Telegram.
Только в этот раз есть вариант автоматизировать это дело, привлекая рефералов. Вы можете заработать если »

|------------2---------------------------------------2----------------------------| |--0------------------------------------------------------------------------------| |---------------------------------------------------------------------------------| |------------------------------------------3--------------------------------------| A5 W | / ~~ ~ S S S S Q S S S S Q |--14---15---14------------------------9----10---9-------------------------| |-----------------15----------------------------------10-------------------| |----------------------14-----------------------------------9--------------| |--------------------------------------------------------------------------| |--------------------------------------------------------------------------| |--------------------------------------------------------------------------| | | Q E E +E Q E |--------------------------------------------------------------------------| |---3-------------------5------3------(3)--------5-------------------------| |--18----------------------------------------------------------------------| |--19----------------------------------------------------------------------| |--19----------------------------------------------------------------------| |--------------------------------------------------------------------------| | W | | |---3---| | E E E E E S S S E S S |--------------------------------------------------------------------------| |------------------------------2-------3---------2h=3p===2p=0-----2s==3----| |-----------------------2--------------------------------------------------| |-------------2------------------------------------------------------------| |---0----------------------------------------------------------------------| |--------------------------------------------------------------------------| B A E E E E E E E E | | | | | | | | o / / / o / / / |-3-| |-3-| |-3--| |-3--| S S S S S S S S S S S S E +E +E +E |--------------10-7----------------------------------| |-------------------10-7-----------------------------| |------------7-----------10-7--9b11===(9)--(9)r=(9)--| |--------7h9-----------------------------------------| |--7h8h9---------------------------------------------| |----------------------------------------------------| | | H H |----------------------------------------------------| |-15--------------------------14---------------------| |-16--------------------------14---------------------| |-16--------------------------14---------------------| |----------------------------------------------------| |----------------------------------------------------| | H H | | E E E E E E E E |----------------------------------------------------| |---------------3---------------------------2--------| |----------------------4-------------------------2---| |--------4-----------------------------2-------------| |--2---------------------------0---------------------| |----------------------------------------------------| E G5(type 2) E E E E H | | | | | o / / / / |-3-| |-3-| |-3-| |-3-| H S S S S S S S S S S S S |-------------------------------------------| |---------------10p8p7-10p8p7-10p8p7-10p8p7-| |-[7]---------------------------------------| |-------------------------------------------| |-------------------------------------------| |-------------------------------------------| | | H E E E E |----------------5------3------2------3-----| |-15------------22--------------------------| |-16------------19--------------------------| |-17------------21--------------------------| |---------------22--------------------------| |-------------------------------------------| | H H | | E E E E E E E E |-----------------------5-------------------| |---------3--------------------3------------| |------------0------------------------4-----| |------2------------------------------------| |-------------------------------------------| |--0-------------3--------------------------| Breakdown Gtr III E E E E E E E E |------------3-------------------------------2------------------| |---------------------5-----------------------------3-----------| |----------------------------4-----------------------------2----| |------------------------------------0--------------------------| |---------------------------------------------------------------| |--0------------------------------------------------------------| | | Gtr V | > | W |---------------------------------------------------------------| |--8------------------------------------------------------------| |---------------------------------------------------------------| |---------------------------------------------------------------| |---------------------------------------------------------------| |---------------------------------------------------------------| | | Gtr I | S S S S E E +E E E E |------12---10---9---10---------------------14-----10-----------| |-10------------------------12-----(12)-------------------10----| |---------------------------------------------------------------| |---------------------------------------------------------------| |---------------------------------------------------------------| |---------------------------------------------------------------| |---3---| E E E E E S S S E E |-----------------------------------------------------------------------------| |------------------------------2---------3--------2h=3p===2p==0--------2------| |--------------------2--------------------------------------------------------| |-----------2-----------------------------------------------------------------| |-0---------------------------------------------------------------------------| |-----------------------------------------------------------------------------| | | W |-----------------------------------------------------------------------------| |-----------------------------------------------------------------------------| |-----------------------------------------------------------------------------| |-----------------------------------------------------------------------------| |-----------------------------------------------------------------------------| |-----------------------------------------------------------------------------| | | S S S S S S S S S S S S S S S S |-9---10--------9-------------------------------------------------------------| |----------12-------10---12--------10-----------------------------------------| |-----------------------------12--------11---12---9----11---------9-----------| |------------------------------------------------------------12-------11---12-| |-----------------------------------------------------------------------------| |-----------------------------------------------------------------------------| E E E E E E E E E E E E H |--------3-----------------2-----------|----------------5---------------| |-------------5------------------3-----|------------5-------------------| |-----------------4-----------------2--|--------2-----------------------| |---------------------0----------------|-----2--------------------------| |--------------------------------------|-0------------------------------| |--0-----------------------------------|--------------------------------| | | W H. S S S S |--------------------------------------|------------------------12-10-9-| |--------------------------------------|---------------------10---------| |--------------------------------------|--------------------------------| |--------------------------------------|--------------------------------| |--------------------------------------|--------------------------------| |--------------------------------------|--------------------------------| | | ~~ | S S S S E E S S S S E E Q E E Q Q |----12-10-9-10-----------------10--9--|-9------9-----------------------| |-10-------------12----------10--------|-----------12--10---------------| |--------------------------9-----------|--------------------------------| |--------------------12-11-------------|--------------------------------| |--------------------------------------|--------------------------------| |--------------------------------------|--------------------------------| Pre-Chorus G G5 A A/E Gtr I Q E S S Q E S S | | | | | | | | / / / / / / / / Gtr V ~~~~~~~~~~~~~~~~~~~~~~~~~~~~~~~~~~~~~ W |-10-----------------------------------| |--------------------------------------| |--------------------------------------| |--------------------------------------| |--------------------------------------| |--------------------------------------| | | Gtr VI | H. S S S S |------------------------------12-10-9-| |---------------------------10---------| |--------------------------------------| |--------------------------------------| |--------------------------------------| |--------------------------------------| | | Gtr IV | S S S S S S S S S S S S S S S S |--3--------3-------5--------5---------| |-----3---3---3---3---5---5-----5----5-| |-------4-------4-------6----------6---| |--------------------------------------| |--------------------------------------| |--------------------------------------| Bm D/B A A/E Q E S S Q E S S | | | | | | | | / / / / / / / / ~~~~~~ +H. S S S S |-(10)--------------------------15-14-12-| |----------------------------10----------| |----------------------------------------| |----------------------------------------| |----------------------------------------| |----------------------------------------| | | ~~~~ | H. S S S S |--10---------------------------12-10--9-| |----------------------------10----------| |----------------------------------------| |----------------------------------------| |----------------------------------------| |----------------------------------------| | | S S S S S S S S S S S S S S S S |---7--------7-------5--------5----------| |------7---7---7---7---5---5-----5-----5-| |--------7-------7-------6----------6----| |----------------------------------------| |----------------------------------------| |----------------------------------------| D.S.S. al Dbl. Coda G G5 A A/E F# F#(tF#e F#(tF#e 2) Q E S S Q E S S S S S S S S S S H | | | | | | | | | | | | | | | | | / / / / / / / / / / / / / / / / / ~~~~ ~~ H.. E H H |-14-----------------------------/21---|-21------------------------|| |--------------------------------------|---------------------------|| |--------------------------------------|---------------------------|| |--------------------------------------|---------------------------|| |--------------------------------------|---------------------------|| |--------------------------------------|---------------------------|| | | ~~~~ ~~ | H.. E H H |-10-----------------------------/14---|-14------------------------|| |--------------------------------------|---------------------------|| |--------------------------------------|---------------------------|| |--------------------------------------|---------------------------|| |--------------------------------------|---------------------------|| |--------------------------------------|---------------------------|| | | S S S S S S S S S S S S S S S S S S S S S S S S S Q.. |--3---------3-------5-------5---------|--2-------2-------2--------|| |------3---3---3---3---5---5---5-----5-|----2---2---2---2----------|| |--------4-------4-------6---------6---|------3-------3------------|| |--------------------------------------|---------------------------|| |--------------------------------------|---------------------------|| |--------------------------------------|---------------------------|| Out-Chorus && Gtr V H H Q Q H |-------------------|------------------------------| |-------------------|------------------------------| |-------------------|------------------------------| |-----------2-------|--4---------------------------| |--2--------0-------|--2----------4-----------5----| |--0----------------|-------------2-----------3----| | | Gtr VI | Q. E Q. S S E S S S S E H |-------------------|------------------------------| |-------------------|------------------------------| |--4----/7--6---4-6-|--7-----7--7-6--4--------4----| |-------------------|-------------------7----------| |-------------------|------------------------------| |-------------------|------------------------------| | | Gtr II | H H S S S S S S S S H |-12-------12-------|-10----------9----------10----| |-12-------14-------|----12----12---10----10-12----| |-12-------14-------|-------11---------11----12----| |-------------------|------------------------------| |-------------------|------------------------------| |-------------------|------------------------------| H H |------------------------------| |------------------------------| |------------------------------| |------------------------------| |--2------------------4--------| |--0------------------2--------| | | S T T S S S S S S Q. S S |------------------------------| |--7h8p7p5---5-----------------| |----------7---7-6-7--6----4-6-| |------------------------------| |------------------------------| |------------------------------| | | H H |-12------------------9--------| |-12-----------------11--------| |-12-----------------11--------| |------------------------------| |------------------------------| |------------------------------| PM-----------------------------| S S S S S S S S S S S S S S S S |-----------------------------------| |-----------------------------------| |-----------------------------------| |-----------------------------------| |--2--2-2-2-2-2-2-2-2-2-2-2-2-2-2-2-| |-----------------------------------| | | Q. S S S S S S S S S S |-----------------------------------| |-------------------5-------5-------| |--7------------6-7---7-6-7---7-6-7-| |-----------------------------------| |-----------------------------------| |-----------------------------------| | | W |-10--------------------------------| |-12--------------------------------| |-11--------------------------------| |-----------------------------------| |-----------------------------------| |-----------------------------------| H H Q Q H |-----------------------|------------------------------| |-----------------------|------------------------------| |-----------------------|------------------------------| |--------------2--------|--4---------------------------| |--2-----------0--------|--2----------4-----------5----| |--0--------------------|-------------2-----------3----| | | Q. E Q E E E S S S S E H |-----------------------|------------------------------| |-----------------------|------------------------------| |--4------/7---6---7--6-|--7-----7--7-6--4--------4----| |-----------------------|-------------------7----------| |-----------------------|------------------------------| |-----------------------|------------------------------| | | H H S S S S S S S S H |-12----------12--------|-10----------9----------10----| |-12----------14--------|----12----12---10----10-12----| |-12----------14--------|-------11---------11----12----| |-----------------------|------------------------------| |-----------------------|------------------------------| |-----------------------|------------------------------| 1. 2. 2/4 4/4 > PM------------| H Q Q S S S S S S S S W ||--------------------------------------------|-------------------||-------*| ||o-------------------------------------------|------------------o||-------*| ||--------------------------------------------|-------------------||-------*| ||----------------------4---------------------|-------------------||--4----*| ||o--2------------------2----------4----------|------------------o||--2----*| ||---0-----------------------------2----------|--3-3-3-3-3-3-3-3--||-------*| | | > | S T T S S S S S S E S S S S E H W ||--------------------------------------------|-------------------||-------*| ||o--7h8p7p5---5------------------------------|------------------o||-------*| ||-----------7---7-6-7--7-----7--7-6--4--6----|--4----------------||--4----*| ||--------------------------------------------|-------------------||-------*| ||o-------------------------------------------|------------------o||-------*| ||--------------------------------------------|-------------------||-------*| | | H S S S S S S S S H W ||--12-----------------10----------9----------|-10----------------||-------*| ||o-12--------------------12----12---11----11-|-12---------------o||-12----*| ||--12-----------------------11---------11----|-12----------------||-------*| ||--------------------------------------------|-------------------||-------*| ||o-------------------------------------------|------------------o||-------*| ||--------------------------------------------|-------------------||-------*|








О сайтеАккордыХит-парадПоискУроки ФорумыИщу песню
ПрограммыСвежачок-сПодпискаСтатьи
Яндекс.Метрика