Табулатура Эпидемия | Прощай, Мой Дом гитара табулатуры уроки тексты песен Эпидемия текст lyrics песня аккорды песни ноты нота электрогитара струна  
   А Б В Г Д Е Ж З И К Л М Н О П Р С Т У Ф Х Ч Ш Ы Э Ю Я       Разные песни
1-9 A B C D E F G H I J K L M N O P Q R S T U V W Y Z      Все исполнители

    



группа Эпидемия, Табулатура песни Прощай, Мой Дом

Группа: Эпидемия - другие аккорды (138),   о группе (9 статей),   диски (6),   фотографии (18)
Табулатура песни: Прощай, Мой Дом
Просмотров: 972
Прислал: edik-konnov@yandex.ru (alf-2002@mail.ru)




    
Прощай мой дом by Nekromik[on]                                                                
E||------------------|------------------|----------------------|
B||------------------|------------------|--------0-------------|
G||------------------|------------------|-----------4----------|
D||------------------|------------------|-----2----------------|
A||------------------|------------------|--0-------------------|
E||------------------|------------------|----------------------|
                                                                         
------------------------|----------------------|------------------------|
-----------0------------|-----------0----------|-----------0------------|
--------5-------5-------|--------5-------------|--------5-------5-------|
-----3-------------3----|-----5----------------|-----5-------------5----|
--0---------------------|--3-------------------|------------------------|
------------------------|----------------------|--3---------------------|
                                                                           
----------------------|------------------------|--------------------------|
-----------0----------|-----------0------------|--------------0-----------|
--------4-------------|--------5-------5-------|--------5--------5-----5--|
-----2----------------|-----3-------------3----|-----5-----5--------5-----|
--0-------------------|--0---------------------|--3-----------------------|
----------------------|------------------------|--------------------------|
                                                                              
-----------------------|--------------------------|--------------------------|
--------------0--------|-----3-----------3--------|-----0--------3-----------|
--------5--------------|--------5-----------5-----|--------5--------5-----5--|
-----5-----5-----------|-----------5-----------5--|-----------5--------5-----|

Продолжаем грести бабос на ботах в Telegram.
Только в этот раз есть вариант автоматизировать это дело, привлекая рефералов. Вы можете заработать если »

-----------------------|--3-----------3-----------|--0-----------------------| --3-----------3--------|--------------------------|--------------------------| -----0-----------0--------|--------------------------| --------3-----------3-----|-----3-----------------0--| -----------5-----------5--|--------5-----------5-----| --3-----------3-----------|-----------5-----5--------| --------------------------|--3-----------------------| --------------------------|--------------3-----------| --------------------------|--------------------------| -----3-----------3--------|-----0--------3-----------| --------5-----------5-----|--------5--------5-----5--| -----------5-----------5--|-----------5--------5-----| --3-----------3-----------|--0-----------------------| --------------------------|--------------------------| -----0-----------0--------|--------------------------|| --------3-----------3-----|-----3-----------------0--|| -----------5-----------5--|--------5-----------5-----|| --3-----------3-----------|-----------5-----5--------|| --------------------------|--3-----------------------|| --------------------------|--------------3-----------||

Мяты настойка
Мята перечная. Очень высокая всхожесть и энергия роста
farmamed.ru
Trimble cfx 750 lite
trimble cfx 750 lite
stav-tex-agro.ru







О сайтеАккордыХит-парадПоискУроки ФорумыИщу песню
ПрограммыСвежачок-сПодпискаСтатьи
Яндекс.Метрика