Табулатура Christie | Yellow River (J. Christie) гитара табулатуры уроки тексты песен Christie текст lyrics песня аккорды песни ноты нота электрогитара струна  
   А Б В Г Д Е Ж З И К Л М Н О П Р С Т У Ф Х Ч Ш Ы Э Ю Я       Разные песни
1-9 A B C D E F G H I J K L M N O P Q R S T U V W Y Z      Все исполнители

    



группа Christie, Табулатура песни Yellow River (J. Christie)

Группа: Christie - другие аккорды (47),   о группе (27 статей),   диски (28),   фотографии (130)
Табулатура песни: Yellow River (J. Christie)
Просмотров: 902
Подобрал: Alla (allawoly@rambler.ru)




    
Yellow river
------------
Christie
Intro
1--------------------|--------------------|--4--4--4------------|--4--4--4------|
2--------------------|--------------0--2--|--5--5--5---0--2-----|--5--5--5------|
3--------------------|--------------------|---------------------|---------------|
4----2--2--2---------|--2--2--2-----------|---------------------|---------------|
5-------------2--4---|--------------------|---------------------|---------------|
6--------------------|--------------------|---------------------|---------------|
1st and 2nd verse
1--0--0--0-----------------|------------------------------|---------------------------------------------|
2-----------2--0--2--0--0--|----2--2--2--0-----0----------|-0--2--2---2--0-----0------------0--0--2--4--|
3--------------------------|----------------1-----1--1----|-----------------1-----1---------------------|
4--------------------------|------------------------------|--------------------------4--4---------------|
5--------------------------|------------------------------|---------------------------------------------|
6--------------------------|------------------------------|---------------------------------------------|

1--0--0--0-----------------|------------------------------|---------------------------------------------|
2-----------2--0--2--0--0--|----2--2--2--0-----0----------|-0--2--2---2--0-----0------------0--0--2--4--|
3--------------------------|----------------1-----1--1----|-----------------1-----1---------------------|
4--------------------------|------------------------------|--------------------------4--4---------------|
5--------------------------|------------------------------|---------------------------------------------|
6--------------------------|------------------------------|---------------------------------------------|
Chorus
1-0--0--0-----0--0--0-----------------------------------|
2----------2----------2---0--4--4--4---2--4--2--0--0----|
3-------------------------------------------------------|
4-------------------------------------------------------|
5-------------------------------------------------------|
6-------------------------------------------------------|

1-0--0--0-----0--0--0-----------------------------------|
2----------2----------2---0--4--4--4---2--4--2--0--0----|
3-------------------------------------------------------|
4-------------------------------------------------------|
5-------------------------------------------------------|
6-------------------------------------------------------|

Продолжаем грести бабос на ботах в Telegram.
Только в этот раз есть вариант автоматизировать это дело, привлекая рефералов. Вы можете заработать если »

1-----------------------------------------------0--0--0--0--0--0--0--0---2--2--2--2--2-----0--0----0------| 2-----2--2--2--2--2--2--2--2---4--4--4--4--4--------------------------------------------4-------------2---| 3---------------------------------------------------------------------------------------------------------| 4---------------------------------------------------------------------------------------------------------| 5---------------------------------------------------------------------------------------------------------| 6---------------------------------------------------------------------------------------------------------| Guitar solo 1-----------------------------|----------4--4--4---------4--4--4------| 2-----------------------------|--0--2----5--5--5---0--2--5--5--5------| 3-----------------------------|---------------------------------------| 4----2--2--2--------2--2--2---|---------------------------------------| 5-------------2--4------------|---------------------------------------| 6-----------------------------|---------------------------------------| 1---/4--2--0----/4--2--0-----------------------------------------------------| 2---/5--0--0----/5--0--0-----2--0---3---2------2--0--3--2--------------------| 3----------------------------2--2---2---2------2--2--2--2--------------------| 4---------------------------------------2---------------2--------------------| 5----------------------------------------------------------------------------| 6----------------------------------------------------------------------------| 1---/4--2--0-------0--/4--2--0----------------------2-------2--------2---------------------0--------0-------0------------| 2---/5--0--0---0h2----/5--0--0---------------------------0--------0---------2--0--------2--------2-------2--------0------| 3---------------------------------1--2--3--3--2--3----2--------2--------2---------2--2--------2-------2--------2-----2---| 4------------------------------------------------------------------------------------------------------------------------| 5------------------------------------------------------------------------------------------------------------------------| 6------------------------------------------------------------------------------------------------------------------------| 1---/4--2--0---------------0h2--0--|| 2---/5--0--0--------0h2---------0--|| 3---------------1h2----------------|| 4----------------------------------|| 5----------------------------------|| 6----------------------------------||








О сайтеАккордыХит-парадПоискУроки ФорумыИщу песню
ПрограммыСвежачок-сПодпискаСтатьи
Яндекс.Метрика