Табулатура Мастер | Кресты гитара табулатуры уроки тексты песен Мастер текст lyrics песня аккорды песни ноты нота электрогитара струна  
   А Б В Г Д Е Ж З И К Л М Н О П Р С Т У Ф Х Ч Ш Ы Э Ю Я       Разные песни
1-9 A B C D E F G H I J K L M N O P Q R S T U V W Y Z      Все исполнители

    



группа Мастер, Табулатура песни Кресты

Продолжаем грести бабос на ботах в Telegram.
Только в этот раз есть вариант автоматизировать это дело, привлекая рефералов. Вы можете заработать если »

Группа: Мастер - другие аккорды (23),   о группе (2 статей),   диски (9),   фотографии (4)
Табулатура песни: Кресты
Просмотров: 5222
Подобрал: Ariaman2005 (ariaman2005@yandex.ru)




    
Аккустическая гитара
D||----------------------------|----------------------------|
A||----------------------------|----------------------------|
F||----------------------------|----------------------------|
D||--------3-----2-----2-3-2-0-|-----0--3--0--------2-3-2-0-|
A||-----5-----5-----3----------|--1--------------5----------|
D||--0-------------------------|--------------5-------------|
                                                          
----------------------------|----------------------------|
----------------------------|----------------------------|
----------------------------|----------------------------|
--------3-----2-----2-3-2-0-|-----3--0-----------2-3-2-0-|
-----5-----5-----3----------|--1--------1-----5----------|
--0-------------------------|--------------5-------------|
                                                          
----------------------------|----------------------------|
----------------------------|----------------------------|
--------4-------------------|----------------------------|
--------------5-----2-3-2---|-----3--0-----------2-3-2-0-|
-----5-----5-----5--------3-|--1--------1-----5----------|
--0-------------------------|--------------5-------------|
                                                                                
----------------------------|--------------3--------|--------------------------|
----------------------------|--------------5--------|--------------------------|
----------------------------|--------------5--------|--------------------------|
--------3-----2-----2-3-2-0-|-----3--0-----5--------|--------3--------2--3--2--|
-----5-----5-----3----------|--1--------1-----------|-----5-----5--3-----------|
--0-------------------------|-----------------------|--0-----------------------|
                                                      
--------------------------|--------------------------|
--------------------------|--------------------------|
--------------------------|--------------------------|
-----0--3--0-----0--2--3--|--------3--------2--3--2--|
--1-----------------------|-----5-----5--3-----------|
--------------5-----------|--0-----------------------|
                                                        
----------------------------|--------------------------|
----------------------------|--------------------------|
--------0--5--0-------------|--------------------------|
-----0-----------0--2-3-2p0-|--------3--------2--3--2--|
----------------------------|-----5-----5--3-----------|
--5-------------------------|--0-----------------------|
                                                                            
--------------------------|--------------------------|--------3------------|
--------------------------|--------------------------|--------5------------|
--------------------------|--------------------------|--------5------------|
-----0--3--0-----0--2--3--|--------3--------2--3--2--|-----0--5------------|
--1-----------------------|-----5-----5--3-----------|---------------------|
--------------5-----------|--0-----------------------|--5------------------|
                                                          
----------------------------|----------------------------|
----------------------------|----------------------------|
----------------------------|----------------------------|
--------3-----2-----2-3-2-0-|-----0--3--0--------2-3-2-0-|
-----5-----5-----3----------|--1--------------5----------|
--0-------------------------|--------------5-------------|
                                                          
----------------------------|----------------------------|
----------------------------|----------------------------|
----------------------------|----------------------------|
--------3-----2-----2-3-2-0-|-----3--0-----------2-3-2-0-|
-----5-----5-----3----------|--1--------1-----5----------|
--0-------------------------|--------------5-------------|
                                                          
----------------------------|----------------------------|
----------------------------|----------------------------|
--------4-------------------|----------------------------|
--------------5-----2-3-2---|-----3--0-----------2-3-2-0-|
-----5-----5-----5--------3-|--1--------1-----5----------|
--0-------------------------|--------------5-------------|
                                                                                
----------------------------|--------------3--------|--------------------------|
----------------------------|--------------5--------|--------------------------|
----------------------------|--------------5--------|--------------------------|
--------3-----2-----2-3-2-0-|-----3--0-----5--------|--------3--------2--3--2--|

Продолжаем грести бабос на ботах в Telegram.
Только в этот раз есть вариант автоматизировать это дело, привлекая рефералов. Вы можете заработать если »

-----5-----5-----3----------|--1--------1--5--------|-----5-----5--3-----------| --0-------------------------|-----------------------|--0-----------------------| --------------------------|--------------------------| --------------------------|--------------------------| --------------------------|--------------------------| -----0--3--0-----0--2--3--|--------3--------2--3--2--| --1-----------------------|-----5-----5--3-----------| --------------5-----------|--0-----------------------| ----------------------------|--------------------------| ----------------------------|--------------------------| --------0--5--0-------------|--------------------------| -----0-----------0--2-3-2p0-|--------3--------2--3--2--| ----------------------------|-----5-----5--3-----------| --5-------------------------|--0-----------------------| --------------------------|--------------------------|--------3------------|| --------------------------|--------------------------|--------5------------|| --------------------------|--------------------------|--------5------------|| -----0--3--0-----0--2--3--|--------3--------2--3--2--|-----0--5------------|| --1-----------------------|-----5-----5--3-----------|---------------------|| --------------5-----------|--0-----------------------|--5------------------|| За спиной крик совы Детский смех в зимней чаще И солнце в захлеб Впереди хвост молвы Столько грязи притащит Что пулю бы в лоб Уходи, исчезай, непонятная сила Вернула б назад И грозу проклиня Рядом молния била Да все не впопад В небе вороны В небе голуби Рукой не развести На Руси вся жизнь изломами Разбиты кресты Почему, для чего Я рожден этим небом И этой землей Чтоб считать день за год Верить в яркую небыль И быть ей слугой В небе вороны В небе голуби Рукой не развести На Руси вся жизнь изломами Разбиты кресты Ночным ураганом В небе вороны В небе голуби Рукой не развести На Руси вся жизнь изломами Разбиты кресты Ночным ураганом В небе вороны В небе голуби Рукой не развести На Руси вся жизнь изломами Разбиты кресты Ночным ураганом Ну как вам подбор надеюсь понравится да и посетите пожалуйста мой сайт www.ariaman2005.narod.ru там находится много чего интересного о группе АРИЯ и тому подобное Удачи в подборе!!!

лекарство в аптеке
список лекарств






О сайтеАккордыХит-парадПоискУроки ФорумыИщу песню
ПрограммыСвежачок-сПодпискаСтатьи
Яндекс.Метрика