Табулатура Эпидемия | Всадник Из Льда  (3) гитара табулатуры уроки тексты песен Эпидемия текст lyrics песня аккорды песни ноты нота электрогитара струна  
   А Б В Г Д Е Ж З И К Л М Н О П Р С Т У Ф Х Ч Ш Ы Э Ю Я       Разные песни
1-9 A B C D E F G H I J K L M N O P Q R S T U V W Y Z      Все исполнители

    



группа Эпидемия, Табулатура песни Всадник Из Льда (3)

Группа: Эпидемия - другие аккорды (138),   о группе (9 статей),   диски (6),   фотографии (18)
Табулатура песни: Всадник Из Льда (3)
Просмотров: 1628
Подобрал: The Metro (hotmail@ua.fm)




    
Я пишу всего лиш вступление. Все другие подборки неправильные!!! это 10000%. неужели вы все не слышали скрип струн???
-----------------------------------------      
-----------------------------------------
----9-------7-------4-------5-----------   x3
--9---9---7---7---4-------5---5---------
7-------5-------2-------3----------------
-----------------------------------------
-----------------------------------------
-----------------------------------------
----9-------7-------4-------------------   
--9---9---7---7---4---------------------
7-------5-------2-------3----------------
-------------------------------3-2-0-----

Продолжаем грести бабос на ботах в Telegram.
Только в этот раз есть вариант автоматизировать это дело, привлекая рефералов. Вы можете заработать если »

с паузами парьтесь сами!!!все остальное проще не бывает Em C Am G x2 - идет простой перебор D C D Em C Am D. ВСЕ... ах да еще пару басов: на C 5) -3-2-0- на G 6) -3-2-0-








О сайтеАккордыХит-парадПоискУроки ФорумыИщу песню
ПрограммыСвежачок-сПодпискаСтатьи
Яндекс.Метрика