Табулатура Metallica | Shoot Me Again гитара табулатуры уроки тексты песен Metallica текст lyrics песня аккорды песни ноты нота электрогитара струна  
   А Б В Г Д Е Ж З И К Л М Н О П Р С Т У Ф Х Ч Ш Ы Э Ю Я       Разные песни
1-9 A B C D E F G H I J K L M N O P Q R S T U V W Y Z      Все исполнители in english

    



группа Metallica, Табулатура песни Shoot Me Again

Работа в Европе для граждан РФ, Украины, СНГ

  • минимальная зарплата $500.
  • виза и контракт на полгода, возможно продление
  • проживание оплачивает работодатель
  • нужен только загранпаспорт
  • оформление 190 €
  • данное предложение - отличная возможность эмигрировать в Европу и закрепиться здесь навсегда.

  • Мы свяжемся с Вами по WhatsApp или Viber и ответим на любые вопросы.
    на нашем сайте можно почитать подробнее »

    Группа: Metallica - другие аккорды (225),   о группе (32 статей),   диски (11),   фотографии (49)
    Табулатура песни: Shoot Me Again
    Просмотров: 1621
    Прислал: xAL (xal@akkords.ru)




        
    "Shoot Me Again"
    by Metallica
    written by Hetfield/Ulrich/Hammett/Rock
    available on "St. Anger" album
    
    tabbed by Tero Saikkonen from Finland!!!
    tsslayer@luukku.com
    
    Guitars Dropped-C tuning (Strings on D) 
    6=C 3=F
    5=G 2=A
    4=C 1=D
    
    INTRO
     /flanger effect/
     (-7-)
    |-----------------------------|
    |-x-x-x-x-x-x-x-x-x-x-x-x-x-x-|
    |-----------------------------|
    |-----------------------------|
    |-----------------------------|
    |-----------------------------|
    
    |---------------------| -4-
    |---------------------|  T
    |---------------------|  I
    |---------------------|  M
    |-0----0----0----0----|  E
    |-0----0----0----0----|  S
    
    |---------------------|
    |---------------------|
    |---------------------|
    |---------------------|
    |-0-------------------|
    |-0-------------------|
    
    |---------------------------------| -4-
    |---------------------------------|  T
    |---------------------------------|  I
    |-0-----------0-----------0-------|  M
    |-0-----------0-----------0-------|  E
    |-0---0-0-0-0-0---0-0-0-0-0---0-0-|  S
    
    |---------------------------------| -2-
    |---------------------------------|  T
    |---------------------------------|  I
    |-0-----------0-----------0-------|  M
    |-0-----------0-----------0-------|  E
    |-0-----------0-----------0-------|  S
    
     ____________________________________________________________________
    |1,2,3 times                      |4th time                          |
    |---------------------------------|----------------------------------|
    |---------------------------------|----------------------------------|
    |---------------------------------|----------------------------------|
    |-0-----------0-----------0-------|-0-----------0--------------------|
    |-0-----------0-----------0-------|-0-----------0--------------------|
    |-0---0-0-0-0-0---0-0-0-0-0---0-0-|-0---0-0-0-0-0--------------------|
    
    MAINRIFF
    |---------------------------------| -8-
    |---------------------------------|  T
    |---------------------------------|  I
    |---------------------------------|  M
    |-0---0-----5-----0---0---1-------|  E
    |-0---0---0-------0---0---1-------|  S
    
    VERSE ("I wont go away...")
     GTR I
     /distortion/
    |--------------------------------------------------------------------------------------------|
    |--------------------------------------------------------------------------------------------|
    |--------------------------------------------------------------------------------------------|
    |--------------------------------------------------------------------------------------------|
    |-0---0-0----0----0----0--0---0-0----0----0----0--1---1-1----1----1----1--1-1-1-1-1-1-1------| -2-
    |-0---0-0----0----0----0--0---0-0----0----0----0--1---1-1----1----1----1--1-1-1-1-1-1-1------|  T
    |                                                                                            |  I
    |GTR II                                                                                      |  M
    |/half-acoustic with slow-effect/                                                            |  E
    |--------------------------------------------------------------------------------------------|  S
    |--------------------------------------------------------------------------------------------|
    |--------------------------------------------------------------------------------_-----full--|
    |(7)---------------------(10)--------------------(8)----------------------8-/-/-/-/-/-/------|
    |-5-----------------------8-----------------------6-----------------------6-/-/-/-/-/-/------|
    |--------------------------------------------------------------------------------------------|
    
    THEN PLAY:
                MAINRIFF   x 4 
                VERSERIFF  x 2
    
    THEN:
    ("Shoot me again i ain_t dead yet...")
    |------------------------------------------------| -4-
    |------------------------------------------------|  T
    |------------------------------------------------|  I
    |------------------------------------------------|  M
    |-------------------------0----3----1--------/3--|  E
    |---------------------x--0----3----1--------/3--|  S
    
    ("Shoot me again, shoot me again...!")
    |--------------------------| -4-
    |--------------------------|  T
    |--------------------------|  I
    |--------------------------|  M
    |-0--0-0-0-0--0-0-0-0--0-0-|  E
    |-0--0-0-0-0--0-0-0-0--0-0-|  S
    
    ("All the shots i take...")
    |---------------------------------------------------
    |---------------------------------------------------
    |---------------------------------------------------
    |---------------------------------------------------
    |---------------------------------------------------
    |-0---0---0-0--0-0-----0-0-3---3---0-3--0-3-----3-3-
    
    ----------------------------------------------------| -2-
    ----------------------------------------------------|  T
    ----------------------------------------------------|  I
    ----------------------------------------------------|  M
    --------------------------5/6-6-6-6-5/6-6-6-6-5/6-6-|  E
    -1---1---1-1--1-1-----1-1---------------------------|  S
    
    ("All the shots...")
    |----------------------------| -2-
    |----------------------------|  T
    |----------------------------|  I
    |----------------------------|  M
    |-0-0-0-0-0-0-0--------------|  E
    |-0-0-0-0-0-0-0--------------|  S
    
    ("All the shots i take...")
    |-----------------------------------------------------
    |-----------------------------------------------------
    |-----------------------------------------------------
    |-----------------------------------------------------
    |-----------------------------------------------------
    |-0--0--0-0--0-0--0--0-0--0-3--3--0-3--0-3--3--0-3--0-
    
    -----------------------------------------------------| -2-
    -----------------------------------------------------|  T
    -----------------------------------------------------|  I
    -----------------------------------------------------|  M
    ---------------------------5/6-6-6-6-5/6-6-6-6-5/6-6-|  E
    -1--1--0-1--0-1--1--0-1--0---------------------------|  S
    
    THEN PLAY:
               MAINRIFF  x 4
               VERSE     x 2
               MAINRIFF  x 4
               
               VERSE     x 2
    
    THEN:
    ("Shoot me again i ain_t dead yet...")
    |------------------------------------------------| -4-
    |------------------------------------------------|  T
    |------------------------------------------------|  I
    |------------------------------------------------|  M
    |-------------------------0----3----1--------/3--|  E
    |---------------------x--0----3----1--------/3--|  S
    
    ("Shoot me again, shoot me again...!")
    |--------------------------| -4-
    |--------------------------|  T
    |--------------------------|  I
    |--------------------------|  M
    |-0--0-0-0-0--0-0-0-0--0-0-|  E
    |-0--0-0-0-0--0-0-0-0--0-0-|  S
    
    ("All the shots i take...")
    |---------------------------------------------------
    |---------------------------------------------------
    |---------------------------------------------------
    |---------------------------------------------------
    |---------------------------------------------------
    |-0---0---0-0--0-0-----0-0-3---3---0-3--0-3-----3-3-
    
    ----------------------------------------------------| -2-
    ----------------------------------------------------|  T
    ----------------------------------------------------|  I
    ----------------------------------------------------|  M
    --------------------------5/6-6-6-6-5/6-6-6-6-5/6-6-|  E
    -1---1---1-1--1-1-----1-1---------------------------|  S
    
    ("All the shots...")
    |----------------------------| -2-
    |----------------------------|  T
    |----------------------------|  I
    |----------------------------|  M
    |-0-0-0-0-0-0-0--------------|  E
    |-0-0-0-0-0-0-0--------------|  S
    
    ("All the shots i take...")
    |-----------------------------------------------------
    |-----------------------------------------------------
    |-----------------------------------------------------
    |-----------------------------------------------------
    |-----------------------------------------------------
    
    Узнай ВСЕ о своем друге в ВК или FB
    |-0--0--0-0--0-0--0--0-0--0-3--3--0-3--0-3--3--0-3--0- -----------------------------------------------------| -2- -----------------------------------------------------| T -----------------------------------------------------| I -----------------------------------------------------| M ---------------------------5/6-6-6-6-5/6-6-6-6-5/6-6-| E -1--1--0-1--0-1--1--0-1--0---------------------------| S THEN PLAY: MAINRIFF x 4 THEN: /flanger effect/ (-7-) |-----------------------------| |-x-x-x-x-x-x-x-x-x-x-x-x-x-x-| |-----------------------------| |-----------------------------| |-----------------------------| |-----------------------------| |---------------------------------| -4- |---------------------------------| T |---------------------------------| I |-0-----------0-----------0-------| M |-0-----------0-----------0-------| E |-0---0-0-0-0-0---0-0-0-0-0---0-0-| S |---------------------------------| -2- |---------------------------------| T |---------------------------------| I |-0-----------0-----------0-------| M |-0-----------0-----------0-------| E |-0-----------0-----------0-------| S ____________________________________________________________________ |1,2,3 times |4th time | |---------------------------------|----------------------------------| |---------------------------------|----------------------------------| |---------------------------------|----------------------------------| |-0-----------0-----------0-------|-0--------------------------------| |-0-----------0-----------0-------|-0--------------------------------| |-0---0-0-0-0-0---0-0-0-0-0---0-0-|-0--------------------------------| GTR I |-------------------------------------------| |-------------------------------------------| |-------------------------------------------| |--------_--------_--------_--------_-------| |-0--0--6-5------6-5------6-5------6-5------| -2 |-0--0--------------------------------------| T | | I |GTR II | M |-------------------------------------------| E |-------------------------------------------| S |-------------------------------------------| |-------------------------------------------| |-0-0---------------------------------------| |-0-0---------------------------------------| |-------------------------------------------------------| -2- |-------------------------------------------------------| T |-------------------------------------------------------| I |--------_------------_------------_------------_-------| M |-0--0--6-5----0--0--6-5----0--0--6-5----0--0--6-5------| E |-0--0---------0--0---------0--0---------0--0-----------| S ("I bute my tongue, trying not to shoot back...") |-----------------------------------------------------------| |-----------------------------------------------------------| |-----------------------------------------------------------| |-----------------------------------------------------------| |-1--1-1-1-1-1--1-1-1-1-1--1-1-1--1-1-1-1-1--1-1-1-1-1--1-1-| |-1--1-1-1-1-1--1-1-1-1-1--1-1-1--1-1-1-1-1--1-1-1-1-1--1-1-| |-------------------------------------------------------| |-------------------------------------------------------| |-------------------------------------------------------| |--------_------------_------------_------------_-------| |-0--0--6-5----0--0--6-5----0--0--6-5----0--0--6-5------| |-0--0---------0--0---------0--0---------0--0-----------| |-----------------------------------------------------------| |-----------------------------------------------------------| |-----------------------------------------------------------| |-----------------------------------------------------------| |-1--1-1-1-1-1--1-1-1-1-1--1-1-1--1-1-1-1-1--1-1-1-1-1--1-1-| |-1--1-1-1-1-1--1-1-1-1-1--1-1-1--1-1-1-1-1--1-1-1-1-1--1-1-| |-------------------------------------------------------| |-------------------------------------------------------| |-------------------------------------------------------| |--------_------------_------------_------------_-------| |-0--0--6-5----0--0--6-5----0--0--6-5----0--0--6-5------| |-0--0---------0--0---------0--0---------0--0-----------| |---------------------------------| -2- |---------------------------------| T |---------------------------------| I |-0-----------0-----------0-------| M |-0-----------0-----------0-------| E |-0-----------0-----------0-------| S |-----------------------------------------------------------------| -2- |-----------------------------------------------------------------| T |-----------------------------------------------------------------| I |-----------------------------------------------------------------| M |-4-5---4-5---4-5---4-5---4-5---4-5---4-5---4-5---4-5---4-5---5---| E |-0-0---0-0---0-0---0-0---0-0---0-0---0-0---0-0---0-0---0-0---0---| S ("Wake the sleeping giant, wake the beast...") |-----------------------------------------------------------------| -2- |-----------------------------------------------------------------| T |-----------------------------------------------------------------| I |-----------------------------------------------------------------| M |-4-5---4-5---4-5---4-5---4-5---4-5---4-5---4-5---4-5---4-5---5---| E |-0-0---0-0---0-0---0-0---0-0---0-0---0-0---0-0---0-0---0-0---0---| S |-----------------------------------------------------------| |-----------------------------------------------------------| |-----------------------------------------------------------| |-----------------------------------------------------------| |-1--1-1-1-1-1--1-1-1-1-1--1-1-1--1-1-1-1-1--1-1-1-1-1--1-1-| |-1--1-1-1-1-1--1-1-1-1-1--1-1-1--1-1-1-1-1--1-1-1-1-1--1-1-| |---------------------------------| |---------------------------------| |---------------------------------| |-0-----------0-----------0-------| |-0-----------0-----------0-------| |-0-----------0-----------0-------| |---------------------------------| |---------------------------------| |---------------------------------| |-0---------0-0-------0-0-------0-| |-0-0-0---0-0-0-0-0-0-0-0-0---0-0-| |-0-0-0-0-0-0-0-0-0-0-0-0-0-0-0-0-| ("All the shots i take...") |------------------------------------------------------- |------------------------------------------------------- |------------------------------------------------------- |------------------------------------------------------- |-0-0-0-0-0-0-0-0-0-0-0-0-0-3-3-3-3-3-3-3-3-3-3-3-3-3-3- |-0-0-0-0-0-0-0-0-0-0-0-0-0-3-3-3-3-3-3-3-3-3-3-3-3-3-3- -------------------------------------------------------| -2- -------------------------------------------------------| T -------------------------------------------------------| I -------------------------------------------------------| M -1---1-1---1-1---1-1---1-1-5/6-6-5/6-6-5/6-6-5/6-6-5/6-| E -1---1-1---1-1---1-1---1-1-----------------------------| S ("All the shots...") |----------------------------| -2- |----------------------------| T |----------------------------| I |----------------------------| M |-0-0-0-0-0-0-0--------------| E |-0-0-0-0-0-0-0--------------| S |------------------------------------------------------- |------------------------------------------------------- |------------------------------------------------------- |------------------------------------------------------- |-0-0-0-0-0-0-0-0-0-0-0-0-0-3-3-3-3-3-3-3-3-3-3-3-3-3-3- |-0-0-0-0-0-0-0-0-0-0-0-0-0-3-3-3-3-3-3-3-3-3-3-3-3-3-3- -------------------------------------------------------| -2- -------------------------------------------------------| T -------------------------------------------------------| I -------------------------------------------------------| M -1---1-1---1-1---1-1---1-1-5/6-6-5/6-6-5/6-6-5/6-6-5/6-| E -1---1-1---1-1---1-1---1-1-----------------------------| S THEN PLAY: MAINRIFF x 4 THEN: /flanger effect/ (-7-) |-----------------------------| |-x-x-x-x-x-x-x-x-x-x-x-x-x-x-| |-----------------------------| THE |-----------------------------| END |-0---------------------------| |-0---------------------------| tabbed by: T E R O S A I K K O N E N contact me to: t s s l a y e r @ l u u k k u . c o m

    лекарство в аптеке
    список лекарств

    Rutor.org

    rutor.org

    krutor.org

    Здесь

    Купить интернет! Плойка стайлер Babyliss Pro от интернет магазина City Shop

    eventus-market.com

    работа для девушек моделью в питере

    studiokleo.ru








    О сайтеАккордыХит-парадПоискУроки ФорумыИщу песню
    ПрограммыСвежачок-сПодпискаСтатьи
    Яндекс.Метрика