Табулатура In Flames | As The Future Repeats Today гитара табулатуры уроки тексты песен In Flames текст lyrics песня аккорды песни ноты нота электрогитара струна  
   А Б В Г Д Е Ж З И К Л М Н О П Р С Т У Ф Х Ч Ш Ы Э Ю Я       Разные песни
1-9 A B C D E F G H I J K L M N O P Q R S T U V W Y Z      Все исполнители

    



группа In Flames, Табулатура песни As The Future Repeats Today

Группа: In Flames - другие аккорды (28),   диски (11)
Табулатура песни: As The Future Repeats Today
Просмотров: 923
Прислал: Сергей (Children2004@mail.ru)




    
                          As the Future Repeats Today                           

Piste 1
                                                           
A#||----------------------|-------------------------------|
F ||----------------------|-------------------------------|
C#||----------------------|-------------------------------|
G#||----------------------|-------------------------------|
D#||--2------4----5----7--|--10--10--10--10--10--9--9--9--|
A#||--0------2----3----5--|--8---8---8---8---8---7--7--7--|

                                                           
--------------------------|-------------------------------|
--------------------------|-------------------------------|
--------------------------|-------------------------------|
--------------------------|-------------------------------|
--------------------------|--10--10--10--10--10--9--9--9--|
--0--0--0--0--0--0--0--0--|--8---8---8---8---8---7--7--7--|

                                                       
----------------------|-------------------------------|
----------------------|-------------------------------|
----------------------|-------------------------------|
----------------------|-------------------------------|
--2------4----5----7--|--10--10--10--10--10--9--9--9--|
--0------2----3----5--|--8---8---8---8---8---7--7--7--|

                                                           
--------------------------|-------------------------------|
--------------------------|-------------------------------|
--------------------------|-------------------------------|
--------------------------|-------------------------------|
--------------------------|--10--10--10--10--10--9--9--9--|
--0--0--0--0--0--0--0--0--|--8---8---8---8---8---7--7--7--|

                                                                      
----------------------||--------------------------|------------------|
----------------------||--------------------------|------------------|
----------------------||*-------------------------|------------------|
----------------------||*-------------------------|------------------|
--2------4----5----7--||--------------------------|------------------|
--0------2----3----5--||---0-0-0------------------|------------------|

                                                                                
-----------------------------|--------------------||---------------------------|
-----------------------------|--------------------||---------------------------|
-----------------------------|-------------------*||*--4--------4--------------|
-----------------------------|-------------------*||*--------5--------2--------|
-------------------5--7--10--|--------7-----------||---------------------------|
--0-0-0------------3--5--8---|--------5-----------||------0--------0-----0--0--|

                                                      
--------------------------|--------------------------|
--------------------------|--------------------------|
--4--------4--------------|--2--------0-----2--------|
--------5--------2--------|-----------------------4--|
--------------------------|-----------------------2--|
-----0--------0-----0--0--|-----3--3-----3-----3-----|

                                                        
---------------------------||--------------------------|
---------------------------||--------------------------|
--------------------------*||--2--------0-----2--------|
--4--------4--4--4--4--4--*||-----------------------5--|
--2--2--2--2--2--2--2--2---||-----------------------3--|
---------------------------||-----3--3-----3-----3-----|

                                                      
------------------------||---------------------------|
------------------------||---------------------------|
------------------------||*--4--------4--------------|
----5--5--4--4--4--7----||*--------5--------2--------|
----3--3--2--2--2--5----||---------------------------|
------------------------||------0--------0-----0--0--|

                                                      
--------------------------|--------------------------|
--------------------------|--------------------------|
--4--------4--------------|--2--------0-----2--------|
--------5--------2--------|-----------------------4--|
--------------------------|-----------------------2--|
-----0--------0-----0--0--|-----3--3-----3-----3-----|

                                                        
---------------------------||--------------------------|
---------------------------||--------------------------|
--------------------------*||--2--------0-----2--------|
--4--------4--4--4--4--4--*||-----------------------5--|
--2--2--2--2--2--2--2--2---||-----------------------3--|
---------------------------||-----3--3-----3-----3-----|

                                                        
------------------------|------------------------------|
------------------------|------------------------------|
------------------------|------------------------------|
----5--5--4--4--4--7----|------------------------------|
----3--3--2--2--2--5----|--10--10--10--10--9--9--9--9--|
------------------------|--8---8---8---8---7--7--7--7--|

                                                          
--------------------------|------------------------------|
--------------------------|------------------------------|
-----9--------9-----7-----|------------------------------|
--9--------------9-----9--|------------------------------|
--------------------------|--10--10--10--10--9--9--9--9--|
--------0--0--------------|--8---8---8---8---7--7--7--7--|

                                                          
--------------------------|------------------------------|
--------------7-----8-----|------------------------------|
-----9--------------------|------------------------------|
--9--------------9-----9--|------------------------------|
--------------------------|--10--10--10--10--9--9--9--9--|
--------0--0--------------|--8---8---8---8---7--7--7--7--|

                                                          
--------------------------|------------------------------|
--------------------------|------------------------------|
-----9--------9-----7-----|------------------------------|
--9--------------9-----9--|------------------------------|
--------------------------|--10--10--10--10--9--9--9--9--|
--------0--0--------------|--8---8---8---8---7--7--7--7--|

                                                           
-----------------------------||---------------------------|
-------------------10--12----||---------------------------|
-----9--11--12--9------------||*--------------------------|
--9--------------------------||*--------------------------|
-----------------------------||---2--2--2--2--2--2--2--2--|
-----------------------------||---0--0--0--0--0--0--0--0--|

                                                      
--------------------------|--------------------------|
--------------------------|--------------------------|
--------------------------|--------------------------|
--------------------------|--5--5--5--5--5--5--5--5--|
--2--2--2--2--2--2--2--2--|--3--3--3--3--3--3--3--3--|
--0--0--0--0--0--0--0--0--|--------------------------|

                                                      
--------------------------|--------------------------|
--------------------------|--------------------------|
--------------------------|--------------------------|
--2--2--2--2--2--2--2--2--|--------------------------|
--0--0--0--0--0--0--0--0--|--2--2--2--2--2--2--2--2--|
--------------------------|--0--0--0--0--0--0--0--0--|

                                                      
--------------------------|--------------------------|
--------------------------|--------------------------|
--------------------------|--------------------------|
--------------------------|--5--5--5--5--5--5--5--5--|
--2--2--2--2--2--2--2--2--|--3--3--3--3--3--3--3--3--|
--0--0--0--0--0--0--0--0--|--------------------------|

                                                                           
---------------------------||--------------------------|------------------|
---------------------------||--------------------------|------------------|
--------------------------*||*-------------------------|------------------|
--2--2--2--2--4--4--4--4--*||*-------------------------|------------------|
--0--0--0--0--2--2--2--2---||--------------------------|------------------|
---------------------------||---0-0-0------------------|------------------|

                                                                                
-----------------------------|--------------------||---------------------------|
-----------------------------|--------------------||---------------------------|
-----------------------------|-------------------*||*--4--------4--------------|
-----------------------------|-------------------*||*--------5--------2--------|
-------------------5--7--10--|--------7-----------||---------------------------|
--0-0-0------------3--5--8---|--------5-----------||------0--------0-----0--0--|

                                                      
--------------------------|--------------------------|
--------------------------|--------------------------|
--4--------4--------------|--2--------0-----2--------|
--------5--------2--------|-----------------------4--|
--------------------------|-----------------------2--|
-----0--------0-----0--0--|-----3--3-----3-----3-----|

                                                        
---------------------------||--------------------------|
---------------------------||--------------------------|
--------------------------*||--2--------0-----2--------|
--4--------4--4--4--4--4--*||-----------------------5--|
--2--2--2--2--2--2--2--2---||-----------------------3--|
---------------------------||-----3--3-----3-----3-----|

                                                        

Продолжаем грести бабос на ботах в Telegram.
Только в этот раз есть вариант автоматизировать это дело, привлекая рефералов. Вы можете заработать если »

------------------------|------------------------------| ------------------------|------------------------------| ------------------------|------------------------------| ----5--5--4--4--4--7----|------------------------------| ----3--3--2--2--2--5----|--10--10--10--10--9--9--9--9--| ------------------------|--8---8---8---8---7--7--7--7--| --------------------------|------------------------------| --------------------------|------------------------------| -----9--------9-----7-----|------------------------------| --9--------------9-----9--|------------------------------| --------------------------|--10--10--10--10--9--9--9--9--| --------0--0--------------|--8---8---8---8---7--7--7--7--| --------------------------|------------------------------| --------------7-----8-----|------------------------------| -----9--------------------|------------------------------| --9--------------9-----9--|------------------------------| --------------------------|--10--10--10--10--9--9--9--9--| --------0--0--------------|--8---8---8---8---7--7--7--7--| --------------------------|------------------------------| --------------------------|------------------------------| -----9--------9-----7-----|------------------------------| --9--------------9-----9--|------------------------------| --------------------------|--10--10--10--10--9--9--9--9--| --------0--0--------------|--8---8---8---8---7--7--7--7--| -----------------------------||---------------------------| -------------------10--12----||---------------------------| -----9--11--12--9------------||*--------------------------| --9--------------------------||*--------------------------| -----------------------------||---2--2--2--2--2--2--2--2--| -----------------------------||---0--0--0--0--0--0--0--0--| --------------------------|--------------------------| --------------------------|--------------------------| --------------------------|--------------------------| --------------------------|--5--5--5--5--5--5--5--5--| --2--2--2--2--2--2--2--2--|--3--3--3--3--3--3--3--3--| --0--0--0--0--0--0--0--0--|--------------------------| --------------------------|--------------------------| --------------------------|--------------------------| --------------------------|--------------------------| --2--2--2--2--2--2--2--2--|--------------------------| --0--0--0--0--0--0--0--0--|--2--2--2--2--2--2--2--2--| --------------------------|--0--0--0--0--0--0--0--0--| --------------------------|--------------------------| --------------------------|--------------------------| --------------------------|--------------------------| --------------------------|--5--5--5--5--5--5--5--5--| --2--2--2--2--2--2--2--2--|--3--3--3--3--3--3--3--3--| --0--0--0--0--0--0--0--0--|--------------------------| ---------------------------||-------------------------| ---------------------------||-------------------------| --------------------------*||-------------------------| --2--2--2--2--4--4--4--4--*||--2----------------------| --0--0--0--0--2--2--2--2---||--0----0--0--0--0--0--0--| ---------------------------||-------------------------| --------------------------|-------------------------|--------------------------| --------------------------|-------------------------|--------------------------| --------------------------|-------------------------|--------------------------| --------------------------|--2----------------------|--------------------------| --0--0--0--0--0--3--2-----|--0----0--0--0--0--0--0--|--3--3--3--3--3--3--3--3--| -----------------------3--|-------------------------|--1--1--1--1--1--1--1--1--| -------------------------|--------------------------|-------------------------| -------------------------|--------------------------|-------------------------| -------------------------|--------------------------|-------------------------| --2----------------------|--------------------------|--2----------------------| --0----0--0--0--0--0--0--|--0--0--0--0--0--3--2-----|--0----0--0--0--0--0--0--| -------------------------|-----------------------3--|-------------------------| --------------------------|---------------------------|------------------| --------------------------|-----6-----5--6--8--6-5----|------------------| --------------------------|--7---------------------7--|------------------| --5--5--5--5--5--5--5--5--|--------0------------------|------------------| --3--3--3--3--3--3--3--3--|---------------------------|------------------| --------------------------|---------------------------|------------------| -----------------6b-----|--6--6-5-------------------|--------------------8-----| -----6-----5--6---------|---------8--6--5-----------|-----6-----5--6--8-----8b-| --7---------------------|------------------7--5--7--|--7-----------------------| --------0---------------|---------------------------|--------0-----------------| ------------------------|---------------------------|--------------------------| ------------------------|---------------------------|--------------------------| ------------------|------10--12--13----------| ------------------|--10----------------------| ------------------|--------------------------| ------------------|--------------------------| ------------------|--------------------------| ------------------|--------------------------| ------10--12--13--12-13-12--10--12--|--------------------| --10--------------------------------|--12----------------| ------------------------------------|--------------------| ------------------------------------|--------------------| ------------------------------------|--------------------| ------------------------------------|--------------------| --------------------------|--------------------------| --------------------------|--------------------------| --------------------------|--------------------------| --------------------------|--5--5--5--5--5--5--5--5--| --2--2--2--2--2--2--2--2--|--3--3--3--3--3--3--3--3--| --0--0--0--0--0--0--0--0--|--------------------------| --------------------------|--------------------------| --------------------------|--------------------------| --------------------------|--------------------------| --2--2--2--2--2--2--2--2--|--------------------------| --0--0--0--0--0--0--0--0--|--2--2--2--2--2--2--2--2--| --------------------------|--0--0--0--0--0--0--0--0--| --------------------------|--------------------------| --------------------------|--------------------------| --------------------------|--------------------------| --------------------------|--5--5--5--5--5--5--5--5--| --2--2--2--2--2--2--2--2--|--3--3--3--3--3--3--3--3--| --0--0--0--0--0--0--0--0--|--------------------------| --------------------------|--------------------------| --------------------------|--------------------------| --------------------------|--------------------------| --2--2--2--2--4--4--4--4--|--------------------------| --0--0--0--0--2--2--2--2--|--2--2--2--2--2--2--2--2--| --------------------------|--0--0--0--0--0--0--0--0--| --------------------------|--------------------------| --------------------------|--------------------------| --------------------------|--------------------------| --------------------------|--5--5--5--5--5--5--5--5--| --2--2--2--2--2--2--2--2--|--3--3--3--3--3--3--3--3--| --0--0--0--0--0--0--0--0--|--------------------------| --------------------------|--------------------------| --------------------------|--------------------------| --------------------------|--------------------------| --2--2--2--2--2--2--2--2--|--------------------------| --0--0--0--0--0--0--0--0--|--2--2--2--2--2--2--2--2--| --------------------------|--0--0--0--0--0--0--0--0--| --------------------------|--------------------------|----------------------| --------------------------|--------------------------|----------------------| --------------------------|--------------------------|----------------------| --------------------------|--5--5--5--5--5--5--5--5--|--2--2--2--4----------| --2--2--2--2--2--2--2--2--|--3--3--3--3--3--3--3--3--|--0--0--0--2----------| --0--0--0--0--0--0--0--0--|--------------------------|----------------------| ----------------------|---------------------|------------------|| ----------------------|---------------------|------------------|| ----------------------|---------------------|------------------|| --2--2--2--4----------|--2------4-----------|------------------|| --0--0--0--2----------|--0------2--------2--|------------------|| ----------------------|------------------0--|------------------||








О сайтеАккордыХит-парадПоискУроки ФорумыИщу песню
ПрограммыСвежачок-сПодпискаСтатьи
Яндекс.Метрика