Табулатура In Flames | Reroute To Remain гитара табулатуры уроки тексты песен In Flames текст lyrics песня аккорды песни ноты нота электрогитара струна  
   А Б В Г Д Е Ж З И К Л М Н О П Р С Т У Ф Х Ч Ш Ы Э Ю Я       Разные песни
1-9 A B C D E F G H I J K L M N O P Q R S T U V W Y Z      Все исполнители

    



группа In Flames, Табулатура песни Reroute To Remain

Группа: In Flames - другие аккорды (28),   диски (11)
Табулатура песни: Reroute To Remain
Просмотров: 1100
Прислал: Сергей (Children2004@mail.ru)




    
                              Reroute To Remain                                 

Guitar 1 (Lead)
                                                                 
C ||------------------|------|------|------|------|------|------|
G ||------------------|------|------|------|------|------|------|
D#||------------------|------|------|------|------|------|------|
A#||------------------|------|------|------|------|------|------|
F ||------------------|------|------|------|------|------|------|
C ||------------------|------|------|------|------|------|------|

                                                                       
-------------------------|------------------|-------------------------|
-------------------------|------------------|-------------------------|
-------------------------|------------------|-------------------------|
-------------------------|------------------|-------------------5--4--|
--------3--2~------------|------------------|--------3--2~------------|
--3--0----------0--5--3~-|------------------|--3--0----------0--------|

                                                                               
------------------------|-------------------------|---------------------------|
------------------------|-------------------------|---------------------------|
------------2-----------|-------------------------|---------------------------|
------4--5-----5--4-----|-------------------------|---------------------------|
---------------------5--|--------3--2~------------|---------------------------|
------------------------|--3--0----------0--5--3~-|----0--0--0--0-0-0--0-0-0--|

                                                                             
-------------------------|------------------------|-------------------------|
-------------------------|------------------------|-------------------------|
-------------------------|------------2-----------|-------------------------|
-------------------5--4--|------4--5-----5--4-----|-------------------------|
--------3--2~------------|---------------------5--|--------3--2~------------|
--3--0----------0--------|------------------------|--3--0----------0--5--3~-|

                                                                               
---------------------------|-------------------------|------------------------|
---------------------------|-------------------------|------------------------|
---------------------------|-------------------------|------------2-----------|
---------------------------|-------------------5--4--|------4--5-----5--4-----|
---------------------------|--------3--2~------------|---------------------5--|
----0--0--0--0-0-0--0-0-0--|--3--0----------0--------|------------------------|

                                                                                
-------------------------|---------------------------|-------------------------|
-------------------------|---------------------------|-------------------------|
-------------------------|---------------------------|-------------------------|
-------------------------|---------------------------|-------------------5--4--|
--------3--2~------------|---------------------------|--------3--2~------------|
--3--0----------0--5--3~-|----0--0--0--0-0-0--0-0-0--|--3--0----------0--------|

                                                                           
------------------------|-------------------------|-----------------------|
------------------------|-------------------------|-----------------------|
------------2-----------|-------------------------|-----------------------|
------4--5-----5--4-----|--9----------------------|-----2--5--------------|
---------------------5--|--7----7--7--7--7--7--7--|--3--------2~----------|
------------------------|-------------------------|----------------3------|

                                                                         
------------------------|-------------------------|---------------------|
------------------------|-------------------------|---------------------|
-----------9----11--12--|--11------12h11-9~-------|---------------------|
------9-----------------|-------------------------|----------------5----|
------------------------|-------------------------|------7----9---------|
------------------------|-------------------------|---------------------|

                                                                        
----------------------|----------------------|-------------------------|
----------------------|----------------------|-------------------------|
----------------------|-----------9----12----|--11------12h11-9~-------|
----------------------|------9---------------|-------------------------|
--9------5h9-5~-------|----------------------|-------------------------|
----------------------|----------------------|-------------------------|

                                                                            
----------------------------|--------------------|----|------|------|------|
----------------------------|--------------------|----|------|------|------|
------11----9h-11h-9--------|--------------------|----|------|------|------|
----------------------12----|--10~---------------|----|------|------|------|
----------------------------|--------------------|----|------|------|------|
----------------------------|--------------------|----|------|------|------|

                                                                             
----|------|------|------|------------------------|-------------------------|
----|------|------|------|------------------------|-------------------------|
----|------|------|------|-----------9----11--12--|--11------12h11-9~-------|
----|------|------|------|------9-----------------|-------------------------|
----|------|------|------|------------------------|-------------------------|
----|------|------|------|------------------------|-------------------------|

                                                                    
---------------------|----------------------|----------------------|
---------------------|----------------------|----------------12----|
---------------------|----------------------|-----------9----------|
-----------4----5----|--7------4h7-4~-------|------9---------------|
------7--------------|----------------------|----------------------|
---------------------|----------------------|----------------------|

                                                                           
-------------------------|-----------------------------|------------------|
--10------12h10-8~-------|------10----8h-10h-8---------|------------------|
-------------------------|----------------------11--9~-|------------------|
-------------------------|-----------------------------|------------------|
-------------------------|-----------------------------|------------------|
-------------------------|-----------------------------|------------------|

                                                               
------|------|------|------|------|------|------|------|------|
------|------|------|------|------|------|------|------|------|
------|------|------|------|------|------|------|------|------|
------|------|------|------|------|------|------|------|------|
------|------|------|------|------|------|------|------|------|
------|------|------|------|------|------|------|------|------|

                                                 
-------------------------|----------------------|
-------------------------|----------------------|
----------11--12--11--9--|--------------11/-12--|
-------------------------|----------------------|
-------------------------|----------------------|
-------------------------|----------------------|

                                                                   
---------------------------------|------|-------------------------|
------------10--12--10h12h10-----|------|-------------------------|
-----------------------------12--|------|----------11--12--11--9--|
----12---------------------------|------|-------------------------|
---------------------------------|------|-------------------------|
---------------------------------|------|-------------------------|

                                                                       
----------------------|---------------------------------|------|------|
----------------------|------------10--12--10h12h10-----|------|------|
--------------11/-12--|-----------------------------12--|------|------|
----------------------|----12---------------------------|------|------|
----------------------|---------------------------------|------|------|
----------------------|---------------------------------|------|------|

                                                                  
--7h-8--0--7h-8--0--7h-8--|--0----------------|------------------|
--------------------------|-------------------|------------------|
--------------------------|-------------------|------------------|
--------------------------|-------------------|------------------|
--------------------------|-------------------|------------------|
--------------------------|-------------------|------------------|

                                                                  
------------------|--7h-8--0--7h-8--0--7h-8--|--0----------------|
------------------|--------------------------|-------------------|
------------------|--------------------------|-------------------|
------------------|--------------------------|-------------------|
------------------|--------------------------|-------------------|
------------------|--------------------------|-------------------|

                                                                 
------------------|------------------|--7h-8--0--7h-8--0--7h-8--|
------------------|------------------|--------------------------|
------------------|------------------|--------------------------|
------------------|------------------|--------------------------|
------------------|------------------|--------------------------|
------------------|------------------|--------------------------|

                                                          
--0----------------|------------------|------------------|
-------------------|------------------|------------------|
-------------------|------------------|------------------|
-------------------|------------------|------------------|
-------------------|------------------|------------------|
-------------------|------------------|------------------|

                                                             
--7h-8--0--7h-8--0--7h-8--|--0----------------|------|------|
--------------------------|-------------------|------|------|
--------------------------|-------------------|------|------|
--------------------------|-------------------|------|------|
--------------------------|-------------------|------|------|
--------------------------|-------------------|------|------|

                                                                             
-------------------------|------------------------|-------------------------|
-------------------------|------------------------|-------------------------|
-------------------------|------------------------|-------------------------|
-------------------------|------------------------|-------------------------|
--------3--2~------------|-------3--2~------------|--------3--2~------------|
--3--0----------0--5--3~-|----0----------0--3--5--|--3--0----------0--5--3~-|

                                                                                
---------------------------|----|------|------|------|----|------|------|------|
---------------------------|----|------|------|------|----|------|------|------|
---------------------------|----|------|------|------|----|------|------|------|
---------------------------|----|------|------|------|----|------|------|------|
---------------------------|----|------|------|------|----|------|------|------|
----0--0--0--0-0-0--0-0-0--|----|------|------|------|----|------|------|------|

                                                               
------|------|------|------|------|------|------|------|------|
------|------|------|------|------|------|------|------|------|
------|------|------|------|------|------|------|------|------|

Продолжаем грести бабос на ботах в Telegram.
Только в этот раз есть вариант автоматизировать это дело, привлекая рефералов. Вы можете заработать если »

------|------|------|------|------|------|------|------|------| ------|------|------|------|------|------|------|------|------| ------|------|------|------|------|------|------|------|------| -------------------------|----------------------| -------------------------|----------------------| ----------11--12--11--9--|--------------11/-12--| -------------------------|----------------------| -------------------------|----------------------| -------------------------|----------------------| ---------------------------------|------|-------------------------| ------------10--12--10h12h10-----|------|-------------------------| -----------------------------12--|------|----------11--12--11--9--| ----12---------------------------|------|-------------------------| ---------------------------------|------|-------------------------| ---------------------------------|------|-------------------------| ----------------------|---------------------------------|------|------| ----------------------|------------10--12--10h12h10-----|------|------| --------------11/-12--|-----------------------------12--|------|------| ----------------------|----12---------------------------|------|------| ----------------------|---------------------------------|------|------| ----------------------|---------------------------------|------|------| --7h-8--0--7h-8--0--7h-8--|--0----------------|------------------| --------------------------|-------------------|------------------| --------------------------|-------------------|------------------| --------------------------|-------------------|------------------| --------------------------|-------------------|------------------| --------------------------|-------------------|------------------| ------------------|--7h-8--0--7h-8--0--7h-8--|--0----------------| ------------------|--------------------------|-------------------| ------------------|--------------------------|-------------------| ------------------|--------------------------|-------------------| ------------------|--------------------------|-------------------| ------------------|--------------------------|-------------------| ------------------|------------------|--7h-8--0--7h-8--0--7h-8--| ------------------|------------------|--------------------------| ------------------|------------------|--------------------------| ------------------|------------------|--------------------------| ------------------|------------------|--------------------------| ------------------|------------------|--------------------------| --0----------------|------------------|------------------| -------------------|------------------|------------------| -------------------|------------------|------------------| -------------------|------------------|------------------| -------------------|------------------|------------------| -------------------|------------------|------------------| --7h-8--0--7h-8--0--7h-8--|--0----------------|------|------| --------------------------|-------------------|------|------| --------------------------|-------------------|------|------| --------------------------|-------------------|------|------| --------------------------|-------------------|------|------| --------------------------|-------------------|------|------| -------------------|--------------------|-------------------|------------------| -------------------|--------------------|-------------------|------------------| -------------------|--------------------|-------------------|------------------| --2----------------|--------------5--7--|------2------------|------------------| --2----------------|--------------5--7--|------2------------|------------------| --0----------------|--------------3--5--|------0------------|------------------| -------------------------|------------------------|-------------------------| -------------------------|------------------------|-------------------------| -------------------------|------------------------|-------------------------| -------------------------|------------------------|-------------------------| --------3--2~------------|-------3--2~------------|--------3--2~------------| --3--0----------0--5--3~-|----0----------0--3--5--|--3--0----------0--5--3~-| ------------------------|--10--7-----8---------------| ------------------------|---------8-----10--7--------| ------------------------|----------------------7--9--| ------------------------|----------------------------| -------3--2~------------|----------------------------| ----0----------0--3--5--|----------------------------| ------------8---------------|--10--7-----8---------------| ---------8-----8------------|---------8-----10--7--------| ------9-----------9------7--|----------------------7--9--| --10-----------------10-----|----------------------------| ----------------------------|----------------------------| ----------------------------|----------------------------| ----------------------|--10--7-----8---------------| ----------------------|---------8-----10--7--------| --9-------7------5----|----------------------7--9--| --10------9------7----|----------------------------| ----------------------|----------------------------| ----------------------|----------------------------| ------------8---------------|--10--7-----8---------------| ---------8-----8------------|---------8-----10--7--------| ------9-----------9------7--|----------------------7--9--| --10-----------------10-----|----------------------------| ----------------------------|----------------------------| ----------------------------|----------------------------| ----------------------|---------------------|-------------------| ----------------------|---------------------|-------------------| --9-------7------5----|----4------2----0----|--2----------------| --10------9------7----|----5------4----2----|--4----------------| ----------------------|---------------------|-------------------| ----------------------|---------------------|-------------------| ------------------|------|------|--7h-8--0--7h-8--0--7h-8--|--0----------------| ------------------|------|------|--------------------------|-------------------| ------------------|------|------|--------------------------|-------------------| ------------------|------|------|--------------------------|-------------------| ------------------|------|------|--------------------------|-------------------| ------------------|------|------|--------------------------|-------------------| ------------------|------------------|--7h-8--0--7h-8--0--7h-8--| ------------------|------------------|--------------------------| ------------------|------------------|--------------------------| ------------------|------------------|--------------------------| ------------------|------------------|--------------------------| ------------------|------------------|--------------------------| --0----------------|------------------|------------------| -------------------|------------------|------------------| -------------------|------------------|------------------| -------------------|------------------|------------------| -------------------|------------------|------------------| -------------------|------------------|------------------| --7h-8--0--7h-8--0--7h-8--|--0----------------|------------------| --------------------------|-------------------|------------------| --------------------------|-------------------|------------------| --------------------------|-------------------|------------------| --------------------------|-------------------|------------------| --------------------------|-------------------|------------------| ------------------|--7h-8--0--7h-8--0--7h-8--|--0----------------|------|------| ------------------|--------------------------|-------------------|------|------| ------------------|--------------------------|-------------------|------|------| ------------------|--------------------------|-------------------|------|------| ------------------|--------------------------|-------------------|------|------| ------------------|--------------------------|-------------------|------|------| -------------------------|------------------------|-------------------------| -------------------------|------------------------|-------------------------| -------------------------|------------------------|-------------------------| -------------------------|------------------------|-------------------------| --------3--2~------------|-------3--2~------------|--------3--2~------------| --3--0----------0--5--3~-|----0----------0--3--5--|--3--0----------0--5--3~-| ------------------------|-------------------------|------------------------| ------------------------|-------------------------|------------------------| ------------------------|-------------------------|------------------------| ------------------------|-------------------------|------------------------| -------3--2~------------|--------7--5~------3--2~-|-------7--5~------2--3--| ----0----------0--3--5--|--3--0----------0--------|----0----------0--------| -------------------------|---------------------------| -------------------------|---------------------------| -------------------------|---------------------------| -------------------------|---------------------------| --------7--5~------3--2~-|---------------------------| --3--0----------0--------|----0--0--0--0-0-0--0-0-0--| ---------------------------|---|| ---------------------------|---|| ---------------------------|---|| ---------------------------|---|| ---------------------------|---|| ----0--0--0--0-0-0--0-0-0--|---||








О сайтеАккордыХит-парадПоискУроки ФорумыИщу песню
ПрограммыСвежачок-сПодпискаСтатьи
Яндекс.Метрика