Басовая табулатура Ария | Герой асфальта гитара табулатуры уроки тексты песен Ария текст lyrics песня аккорды песни ноты нота электрогитара струна  
   А Б В Г Д Е Ж З И К Л М Н О П Р С Т У Ф Х Ч Ш Ы Э Ю Я       Разные песни
1-9 A B C D E F G H I J K L M N O P Q R S T U V W Y Z      Все исполнители in english

    



группа Ария, Басовая табулатура песни Герой асфальта

Продолжаем грести бабос на ботах в Telegram.
Только в этот раз есть вариант автоматизировать это дело, привлекая рефералов. Вы можете заработать если »

Группа: Ария - другие аккорды (629),   о группе (7 статей),   диски (18),   фотографии (92)
Басовая табулатура песни: Герой асфальта
Просмотров: 1108
Подобрал: Ripper (krukov.e@mail.ru)




    
Бас (Дубинин) 
                                                                    
G||---------------------|----------------------|--------------------| 
D||*--------------------|----------------------|--------------------| 
A||*--------------------|----------------------|--------------------| 
E||---7--7--------------|--5--5------5----6----|--7--7--------------| 
                                                              
-----------------------||------------------|------------------| 
----------------------*||------------------|------------------| 
----------------------*||------------------|------------------| 
--5--5------3----5-----||------------------|------------------| 
                                                              
|-------------------------------|-----------------------------| 
|*------------------------------|---------------7-------------| 
|*--7--7-7-7--7-7-7--7-7-7--7-7-|--7--7--9--10-----10--9--10--| 
|-------------------------------|-----------------------------| 
                                                              
------------------------------|------------------------------| 
------------------------------|------------------------------| 
--7--7-7-7--7-7-7--7-7-7--7-7-|--7--7-7-7--7-7-7--7-7-7--3-3-| 

Продолжаем грести бабос на ботах в Telegram.
Только в этот раз есть вариант автоматизировать это дело, привлекая рефералов. Вы можете заработать если »

------------------------------|------------------------------| ------------------------------|------------------------------| ------------------------------|------------------------------| --3--3-3-3--3-3-3--3-3-3--3-3-|--3--3-3-3--3-3-3--3-3-3--5-5-| ------------------------------|------------------------------| ------------------------------|-------------------------------|| ------------------------------|------------------------------*|| --5--5-5-5--5-5-5--5-5-5--5-5-|--5--5-5-5--5-5-5--5-5-5--5-5-*|| ------------------------------|-------------------------------|| ------------------------------|-------------------------|| ------------------------------|-------------------------|| --7--7-7-7--7-7-7--7-7-7--7-7-|--7--7-7-7--7-7-7/-------|| ------------------------------|-------------------------||

найти лекарство
список лекарств






О сайтеАккордыХит-парадПоискУроки ФорумыИщу песню
ПрограммыСвежачок-сПодпискаСтатьи
Яндекс.Метрика