Табулатура In Flames | Artifacts Of The Black Rain гитара табулатуры уроки тексты песен In Flames текст lyrics песня аккорды песни ноты нота электрогитара струна  
   А Б В Г Д Е Ж З И К Л М Н О П Р С Т У Ф Х Ч Ш Ы Э Ю Я       Разные песни
1-9 A B C D E F G H I J K L M N O P Q R S T U V W Y Z      Все исполнители

    



группа In Flames, Табулатура песни Artifacts Of The Black Rain

Группа: In Flames - другие аккорды (28),   диски (11)
Табулатура песни: Artifacts Of The Black Rain
Просмотров: 991
Прислал: Сергей (Children2004@mail.ru)




    
Intro
Riff A								    (end Riff A)
Gtr 1	
   pm...  pm... 	 pm...  pm...          pm...  pm...  pm................
|------------------------------------------------------------------------------|
|------------------------------------------------------------------------------|
|------------------------------------------------------------------------------|
|2------2------4---5---2------2------4---5---7------5------4-------------------|
|0--00000--00002---3---0--00000--00002---3---5--55553--33332-223333222200002222|
|------------------------------------------------------------------------------|
|
|Gtr 2
| pm...  pm...          pm...  pm...        pm......  pm...  pm................
|------------------------------------------------------------------------------|
|------------------------------------------------------------------------------|
|5-55555--55557---9---5--55555--55557---9-10-101010109-99997-779999777755557777|
|------------------------------------------------------------------------------|
|------------------------------------------------------------------------------|
|------------------------------------------------------------------------------|
Riff B							        (end Riff B)
Gtr 1
     pm.    pm. pm.    pm.    pm. pm.    pm.    pm. pm.let ring............
|--------------------------------------------------------------------------|
|--------------------------------------------------------------------------|
|-------------------------------------------------------12-----12-------12-|
|2------2------2---5------5------5---7------7------7------10------10-------|
|0----000----000-003----333----333-335----555----555-558-----8-------8-----|
|--------------------------------------------------------------------------|
|
|Gtr 2
|--------------------------------------------------------------------------|
|--------------------------------------------------------------------------|
|-------------------------12-----------------------------------------------|
|10-9-7------------9-10-12-----------151412------------15-14-12-10--12-10--|
|-------7-----------------------------------12-----------------------------|
|--------------------------------------------------------------------------|
Verse (repeat the Gtr 1 part of Riff B 2 times)
Riff C			                        		(end Riff C)
Gtr 1
|--------------------------------------------------------------------------|
|--------------------------------------------------------------------------|
|--------------------------------------------------------------------------|
|-2-----------------5------------------------------------------------------|
|-0----5------------3----7-----------7----5--------------3----5------------|
|------3------------3----5-----------5----3--------------1----3------------|
|
|Gtr 2						  h p     h
|--------------------------------------------------------------------------|
|--------------------------------------------------------------------------|
|------------------------------------7--9-12--10-910-9-------9-------------|
|-10--9----------10-12109-------9-10--10--------------12-1012-12-----------|
|------------------------12------------------------------------------------|
|--------------------------------------------------------------------------|
Verse II (Repeat the rhythm part of Riff B twice)
Repeat Riff C twice
Verse III (Repeat the rhythm part of Riff B twice)
Repeat Riff C twice
Bridge
Gtr 1 strikes the A5 chord
Gtr 2   pm.     pm.   pm.       pm.     pm.  pm.       pm.     pm.  pm.  
|----------------------------------------------------------------------|
|----------------------------------------------------------------------|
|9----9----9-------9-----9----9----10------9----9----9----7-------7----|
|7----7--777-----777---777----7--777-----777--777----7--555-----555--55|
|----------------------------------------------------------------------|
|----------------------------------------------------------------------|
			     Gtr 1strikes the A5 chord short
Gtr 2	pm.     pm.   pm.        pm.    pm.  pm.       pm.    pm.   pm. 
|------------------------|---------------------------------------------|

Продолжаем грести бабос на ботах в Telegram.
Только в этот раз есть вариант автоматизировать это дело, привлекая рефералов. Вы можете заработать если »

|------------------------|---------------------------------------------| |7----7----5-------5-----|9----9----10-----9----9----9----9------9-----| |5----5--333-----333---33|7----7--777----777--777----7--777----777---77| |------------------------|---------------------------------------------| |------------------------|---------------------------------------------| pm.................... (short) Gtr 2 pm. pm. pm.letring........(both gtrs.) |-------------------------------------------------------------------------| |-------------------------8-----8-----8-----------------------------------| |7----7----5------5---------5-----5---------------------------------------| |5----5--333----333---333-----3-----3---3--3--3--3--3--3--3--3--5--5------| |---------------------------------------3--3--3--3--3--3--3--3--5--5------| |---------------------------------------1--1--1--1--1--1--1--1--3--3------| Lead section A (HAVENґT FIGURED OUT THE LEAD, PLEASE E-MAIL FOR HELP!!!!!!) Rhythm part (Gtr 1)(play twice) pm... pm... pm. pm... pm... pm. pm................ pm................. |-----------------------------------------------------------------------------| |-----------------------------------------------------------------------------| |9------9------9---9------9------9--------------------------------------------| |9------9------9---9------9------9---9-------------------9--------------------| |7--77777--77777-777--77777--77777-779-------------------9--------------------| |------------------------------------7--777--777--777--777--777--777--777--77-| Lead section B Gtr 1 plays chords E5(VII) C5 G5 D5 Gtr 2 pm throughout |------------------------------------------------------------------| |------------------------------------------------------------------| |------------------------------------------------------------------| |-1212141414141212141414141212141412121414141417171717161614141212-| |------------------------------------------------------------------| |------------------------------------------------------------------| Gtr 1 E5(VII) C5 G5 D5 Gtr 2 (upper harmony part indicated) |------------------------------------------------------------------| |------------------------------------------------------------------| |---------------------------------------------16161616141412121111-| |-12121414141412121414141412121414121214141414---------------------| |------------------------------------------------------------------| |------------------------------------------------------------------| Gtr 1 E5(VII) C5 G5 D5 Gtr 2 |------------------------------------------------------------------| |------------------------------------------------------------------| |-1111121212121111121212121111121211111212121216161616141412121111-| |------------------------------------------------------------------| |------------------------------------------------------------------| |------------------------------------------------------------------| Gtr 1 pm.......................... (short) |-----------------------------------------------------------------------| |-----------------------------------------------------------------------| |-----------------------------------------------------------------------| |-3---3---3--3--3---3---3--3---5--5--5---5---5--------------------------| |-3---3---3--3--3---3---3--3---5--5--5---5---5--------------------------| |-1---1---1--1--1---1---1--1---3--3--3---3---3--------------------------| | h p |Gtr 2 (release pm) |-----------------------------------------------------------------------| |-----------------------------------------------------------------------| |-1111121212121111121212121111121211111212121216---16-141614-12---11----| |-----------------------------------------------------------------------| |-----------------------------------------------------------------------| |-----------------------------------------------------------------------|








О сайтеАккордыХит-парадПоискУроки ФорумыИщу песню
ПрограммыСвежачок-сПодпискаСтатьи
Яндекс.Метрика