Аккорды In Flames | Satellites And Astronauts гитара табулатуры уроки тексты песен In Flames текст lyrics песня аккорды песни ноты нота электрогитара струна  
   А Б В Г Д Е Ж З И К Л М Н О П Р С Т У Ф Х Ч Ш Ы Э Ю Я       Разные песни
1-9 A B C D E F G H I J K L M N O P Q R S T U V W Y Z      Все исполнители

    



группа In Flames, Аккорды песни Satellites And Astronauts

Группа: In Flames - другие аккорды (28),   диски (11)
Аккорды песни: Satellites And Astronauts
Просмотров: 718
Подобрал: Сергей (Children2004@mail.ru)




    
                          Satellites And Astronauts                             

                                                Jesper Strцmblad & Bjцrn Gelotte
Guitar 1 (Solo)

                                                                          
 
                                                                    
-----------------------|---------------------|---------------------|
-----8--7h8h7----7--8--|--10--8--7--8--7-----|-----7-----8-----10--|
--9-----------9--------|------------------9--|--7-----7-----7------|
-----------------------|---------------------|---------------------|
-----------------------|---------------------|---------------------|
-----------------------|---------------------|---------------------|

                                                               
--12----------------------------------|-----------------------|
-----15-13-12-------12----------------|-----8--7h8h7----7--8--|
--------------14-12----14-12-11-------|--9-----------9--------|
--------------------------------14-12-|-----------------------|
--------------------------------------|-----------------------|
--------------------------------------|-----------------------|

                                                                        
----------------------------|--------------------|---------------------|
--10--8h10h8-7--8--7h8h7----|--------------------|--8--7h8h7-----------|
-------------------------9--|--7-----7--9--7--9--|-----------9--7~-----|
----------------------------|-----7--------------|---------------------|
----------------------------|--------------------|---------------------|
----------------------------|--------------------|---------------------|

                                                                                
--------------------|-------------------|------------7--8--|--8--7-------------|
---------7--8--8h10-|--10----8h7h8~-----|--------10--------|--------8----------|
--7-----------------|-------------------|------------------|-------------------|
--------------------|-------------------|------------------|-----------10~-----|
--------------------|-------------------|------------------|-------------------|
--------------------|-------------------|------------------|-------------------|

                                                                               

Продолжаем грести бабос на ботах в Telegram.
Только в этот раз есть вариант автоматизировать это дело, привлекая рефералов. Вы можете заработать если »

-----------------|-----------------------|---------7--10--7--|--10b-----------| -----------7--8--|--8--7h8h7----------7--|-------------------|----------------| --------9--------|-----------9--7--------|--9----------------|----------------| -----------------|-----------------9-----|-------------------|----------------| -----------------|-----------------------|-------------------|----------------| -----------------|-----------------------|-------------------|----------------| --------14--15--17--|--17--15h17h15-14--15~-----|--------17--19--20--| --------------------|---------------------------|--------------------| --------------------|---------------------------|--------------------| --------------------|---------------------------|--------------------| --------------------|---------------------------|--------------------| --------------------|---------------------------|--------------------| --20-19-17----------------------------|----------12--14--15--| -----------20-19-17-20-19-17----------|----------------------| -----------------------------19-17-16-|--17~-----------------| --------------------------------------|----------------------| --------------------------------------|----------------------| --------------------------------------|----------------------| --15--14h15h14-12----------14--|--12~-----------|--------------|------|------| -------------------15--12------|----------------|--------------|------|------| -------------------------------|----------------|--------------|------|------| -------------------------------|----------------|--------------|------|------| -------------------------------|----------------|--------------|------|------| -------------------------------|----------------|--------------|------|------|








О сайтеАккордыХит-парадПоискУроки ФорумыИщу песню
ПрограммыСвежачок-сПодпискаСтатьи
Яндекс.Метрика