Табулатура Radiohead | True Love Waits гитара табулатуры уроки тексты песен Radiohead текст lyrics песня аккорды песни ноты нота электрогитара струна  
   А Б В Г Д Е Ж З И К Л М Н О П Р С Т У Ф Х Ч Ш Ы Э Ю Я       Разные песни
1-9 A B C D E F G H I J K L M N O P Q R S T U V W Y Z      Все исполнители in english

    



группа Radiohead, Табулатура песни True Love Waits

Работа в Европе для граждан РФ, Украины, СНГ

  • минимальная зарплата $500.
  • виза и контракт на полгода, возможно продление
  • проживание оплачивает работодатель
  • нужен только загранпаспорт
  • оформление 190 €
  • данное предложение - отличная возможность эмигрировать в Европу и закрепиться здесь навсегда.

  • Мы свяжемся с Вами по WhatsApp или Viber и ответим на любые вопросы.
    на нашем сайте можно почитать подробнее »

    Группа: Radiohead - другие аккорды (189),   о группе (6 статей),   диски (9),   фотографии (134)
    Табулатура песни: True Love Waits
    Просмотров: 1181
    Подобрал: Badtimes (indiespace@akkords.ru)




        
    
                                                                                
    E||--0--0----0----0--0----|--0--0----0--0----0--0--|--0--0----0----0--0----|
    B||--0--1----1----1--1----|--1--1----1--1----0--0--|--0--1----1----1--1----|
    G||--0--0----0----0--0----|--0--0----0--0----0--0--|--0--0----0----0--0----|
    D||--2--2----2----2--2----|--2--2----2--2----2--2--|--2--2----2----2--2----|
    A||--3--3----3----3--3----|--3--3----3--3----3--3--|--3--3----3----3--3----|
    E||-----------------------|------------------------|-----------------------|
    
                                                                              
    --0--0----0--0----0--0--|--0--0----0----0--0----|--0--0----0--0----0--0--|
    --1--1----1--1----0--0--|--0--1----1----1--1----|--1--1----1--1----0--0--|
    --0--0----0--0----0--0--|--0--0----0----0--0----|--0--0----0--0----0--0--|
    --2--2----2--2----2--2--|--2--2----2----2--2----|--2--2----2--2----2--2--|
    --3--3----3--3----3--3--|--2--2----2----2--2----|--2--2----2--2----2--2--|
    ------------------------|--0--0----0----0--0----|--0--0----0--0----0--0--|
    
                                                                             
    --0--0----0----0--0----|--0--0----0--0----0--0--|--0--0----0----0--0----|
    --0--1----1----1--1----|--1--1----1--1----0--0--|--0--1----1----1--1----|
    --0--0----0----0--0----|--0--0----0--0----0--0--|--2--2----2----2--2----|
    --2--2----2----2--2----|--2--2----2--2----2--2--|--2--2----2----2--2----|
    --2--2----2----2--2----|--2--2----2--2----2--2--|--0--0----0----0--0----|
    --0--0----0----0--0----|--0--0----0--0----0--0--|-----------------------|
    
                                                                              
    --0--0----0--0----0--0--|--0--0----0----0--0----|--0--0----0--0----0--0--|
    --1--1----1--1----0--0--|--0--1----1----1--1----|--1--1----1--1----0--0--|
    --2--2----2--2----2--2--|--2--2----2----2--2----|--2--2----2--2----2--2--|
    --2--2----2--2----2--2--|--2--2----2----2--2----|--2--2----2--2----2--2--|
    --0--0----0--0----0--0--|--0--0----0----0--0----|--0--0----0--0----0--0--|
    ------------------------|-----------------------|------------------------|
    
                                                                             
    --4--6----6----6--6----|--6--6----6--6----6--6--|--4--6----6----6--6----|
    --4--4----4----4--4----|--4--4----4--4----4--4--|--4--4----4----4--4----|
    --5--5----5----5--5----|--5--5----5--5----5--5--|--5--5----5----5--5----|
    --6--6----6----6--6----|--6--6----6--6----6--6--|--6--6----6----6--6----|
    --6--6----6----6--6----|--6--6----6--6----6--6--|--6--6----6----6--6----|
    --4--4----4----4--4----|--4--4----4--4----4--4--|--4--4----4----4--4----|
    
                             2x                                                 
    --6--6----6--6----6--6---||--0--0----0----0--0----|--0--0----0--0----0--0--|
    --4--4----4--4----4--4---||--0--1----1----1--1----|--1--1----1--1----0--0--|
    --5--5----5--5----5--5--*||--0--0----0----0--0----|--0--0----0--0----0--0--|
    --6--6----6--6----6--6--*||--2--2----2----2--2----|--2--2----2--2----2--2--|
    --6--6----6--6----6--6---||--3--3----3----3--3----|--3--3----3--3----3--3--|
    --4--4----4--4----4--4---||-----------------------|------------------------|
    
                                                                             
    --1--1----1----1--1----|--1--1----1--1----0--0--|--0--0----0----0--0----|
    --1--1----1----1--1----|--1--1----1--1----0--0--|--0--1----1----1--1----|
    --1--2----2----2--2----|--2--2----2--2----0--0--|--0--0----0----0--0----|
    --3--3----3----3--3----|--3--3----3--3----2--2--|--2--2----2----2--2----|
    --3--3----3----3--3----|--3--3----3--3----3--3--|--3--3----3----3--3----|
    --1--1----1----1--1----|--1--1----1--1----------|-----------------------|
    
                                                                              
    --0--0----0--0----0--0--|--1--1----1----1--1----|--1--1----1--1----0--0--|
    --1--1----1--1----0--0--|--1--1----1----1--1----|--1--1----1--1----0--0--|
    --0--0----0--0----0--0--|--1--2----2----2--2----|--2--2----2--2----0--0--|
    --2--2----2--2----2--2--|--3--3----3----3--3----|--3--3----3--3----2--2--|
    --3--3----3--3----3--3--|--3--3----3----3--3----|--3--3----3--3----3--3--|
    ------------------------|--1--1----1----1--1----|--1--1----1--1----------|
    
                                                                             
    --0--0----0----0--0----|--0--0----0--0----0--0--|--0--0----0----0--0----|
    --0--1----1----1--1----|--1--1----1--1----0--0--|--0--1----1----1--1----|
    --0--0----0----0--0----|--0--0----0--0----0--0--|--0--0----0----0--0----|
    --2--2----2----2--2----|--2--2----2--2----2--2--|--2--2----2----2--2----|
    --3--3----3----3--3----|--3--3----3--3----3--3--|--3--3----3----3--3----|
    -----------------------|------------------------|-----------------------|
    
                                                                              
    --0--0----0--0----0--0--|--0--0----0----0--0----|--0--0----0--0----0--0--|
    --1--1----1--1----0--0--|--0--1----1----1--1----|--1--1----1--1----0--0--|
    --0--0----0--0----0--0--|--2--2----2----2--2----|--2--2----2--2----2--2--|
    --2--2----2--2----2--2--|--3--3----3----3--3----|--3--3----3--3----3--3--|
    --3--3----3--3----3--3--|-----------------------|------------------------|
    ------------------------|-----------------------|------------------------|
    
                                                                               
    --0--0----0----0--0----|--0--0----0--0----0--0--||---0--0----3----3--3----|
    --0--1----1----1--1----|--1--1----1--1----0--0--||---0--1----1----1--1----|
    --2--2----2----2--2----|--2--2----2--2----2--2--||*--0--0----0----0--0----|
    --3--3----3----3--3----|--3--3----3--3----3--3--||*--2--2----2----2--2----|
    -----------------------|------------------------||---3--3----3----3--3----|
    -----------------------|------------------------||------------------------|
    
                                                                              
    --1--1----0--0----0--0--|--0--0----3----3--3----|--1--1----0--0----0--0--|
    --1--1----1--1----0--0--|--0--1----1----1--1----|--1--1----1--1----0--0--|
    --0--0----0--0----0--0--|--0--0----0----0--0----|--0--0----0--0----0--0--|
    --2--2----2--2----2--2--|--2--2----2----2--2----|--2--2----2--2----2--2--|
    --3--3----3--3----3--3--|--3--3----3----3--3----|--3--3----3--3----3--3--|
    ------------------------|-----------------------|------------------------|
    
                                                                             
    --0--0----3----3--3----|--1--1----0--0----0--0--|--0--0----3----3--3----|
    --0--1----1----1--1----|--1--1----1--1----0--0--|--0--1----1----1--1----|
    --0--0----0----0--0----|--0--0----0--0----0--0--|--0--0----0----0--0----|
    --2--2----2----2--2----|--2--2----2--2----2--2--|--2--2----2----2--2----|
    --2--2----2----2--2----|--2--2----2--2----2--2--|--2--2----2----2--2----|
    --0--0----0----0--0----|--0--0----0--0----0--0--|--0--0----0----0--0----|
    
                                                                              
    --1--1----0--0----0--0--|--0--0----3----3--3----|--1--1----0--0----0--0--|
    --1--1----1--1----0--0--|--0--1----1----1--1----|--1--1----1--1----0--0--|
    --0--0----0--0----0--0--|--2--2----2----2--2----|--2--2----2--2----2--2--|
    --2--2----2--2----2--2--|--2--2----2----2--2----|--2--2----2--2----2--2--|
    --2--2----2--2----2--2--|--0--0----0----0--0----|--0--0----0--0----0--0--|
    --0--0----0--0----0--0--|-----------------------|------------------------|
    
                                                                             
    --0--0----3----3--3----|--1--1----0--0----0--0--|--4--6----6----6--6----|
    --0--1----1----1--1----|--1--1----1--1----0--0--|--4--4----4----4--4----|
    --2--2----2----2--2----|--2--2----2--2----2--2--|--5--5----5----5--5----|
    --2--2----2----2--2----|--2--2----2--2----2--2--|--6--6----6----6--6----|
    --0--0----0----0--0----|--0--0----0--0----0--0--|--6--6----6----6--6----|
    -----------------------|------------------------|--4--4----4----4--4----|
    
                                                                                
    --6--6----6--6----6--6--|--4--6----6----6--6----|--6--6----6--6----6--6---||
    --4--4----4--4----4--4--|--4--4----4----4--4----|--4--4----4--4----4--4---||
    --5--5----5--5----5--5--|--5--5----5----5--5----|--5--5----5--5----5--5--*||
    --6--6----6--6----6--6--|--6--6----6----6--6----|--6--6----6--6----6--6--*||
    --6--6----6--6----6--6--|--6--6----6----6--6----|--6--6----6--6----6--6---||
    --4--4----4--4----4--4--|--4--4----4----4--4----|--4--4----4--4----4--4---||
    
                                                                             
    --0--0----3----3--3----|--1--1----0--0----0--0--|--1--1----1----1--1----|
    --0--1----1----1--1----|--1--1----1--1----0--0--|--1--1----1----1--1----|
    --0--0----0----0--0----|--0--0----0--0----0--0--|--1--2----2----2--2----|
    --2--2----2----2--2----|--2--2----2--2----2--2--|--3--3----3----3--3----|
    --3--3----3----3--3----|--3--3----3--3----3--3--|--3--3----3----3--3----|
    -----------------------|------------------------|--1--1----1----1--1----|
    
                                                                              
    --1--1----1--1----0--0--|--0--0----3----3--3----|--1--1----0--0----0--0--|
    --1--1----1--1----0--0--|--0--1----1----1--1----|--1--1----1--1----0--0--|
    --2--2----2--2----0--0--|--0--0----0----0--0----|--0--0----0--0----0--0--|
    --3--3----3--3----2--2--|--2--2----2----2--2----|--2--2----2--2----2--2--|
    --3--3----3--3----3--3--|--3--3----3----3--3----|--3--3----3--3----3--3--|
    --1--1----1--1----------|-----------------------|------------------------|
    
                                                                               
    --1--1----1----1--1----|--1--1----1--1----0--0--||---0--0----3----3--3----|
    --1--1----1----1--1----|--1--1----1--1----0--0--||---0--1----1----1--1----|
    --1--2----2----2--2----|--2--2----2--2----0--0--||*--0--0----0----0--0----|
    --3--3----3----3--3----|--3--3----3--3----2--2--||*--2--2----2----2--2----|
    
    Узнай ВСЕ о своем друге в ВК или FB
    --3--3----3----3--3----|--3--3----3--3----3--3--||---3--3----3----3--3----| --1--1----1----1--1----|--1--1----1--1----------||------------------------| --1--1----0--0----0--0--|--0--0----3----3--3----|--1--1----0--0----0--0--| --1--1----1--1----0--0--|--0--1----1----1--1----|--1--1----1--1----0--0--| --0--0----0--0----0--0--|--0--0----0----0--0----|--0--0----0--0----0--0--| --2--2----2--2----2--2--|--2--2----2----2--2----|--2--2----2--2----2--2--| --3--3----3--3----3--3--|--3--3----3----3--3----|--3--3----3--3----3--3--| ------------------------|-----------------------|------------------------| --0--0----3----3--3----|--1--1----0--0----0--0--|--0--0----3----3--3----| --0--1----1----1--1----|--1--1----1--1----0--0--|--0--1----1----1--1----| --2--2----2----2--2----|--2--2----2--2----2--2--|--2--2----2----2--2----| --3--3----3----3--3----|--3--3----3--3----3--3--|--3--3----3----3--3----| -----------------------|------------------------|-----------------------| -----------------------|------------------------|-----------------------| --1--1----0--0----0--0--|--0--0----3----3--3----|--1--1----0--0----0--0--| --1--1----1--1----0--0--|--0--1----1----1--1----|--1--1----1--1----0--0--| --2--2----2--2----2--2--|--0--0----0----0--0----|--0--0----0--0----0--0--| --3--3----3--3----3--3--|--2--2----2----2--2----|--2--2----2--2----2--2--| ------------------------|--3--3----3----3--3----|--3--3----3--3----3--3--| ------------------------|-----------------------|------------------------| --0--0----3----3--3----|--1--1----0--0----0--0--|--0--0----3----3--3----| --0--1----1----1--1----|--1--1----1--1----0--0--|--0--1----1----1--1----| --0--0----0----0--0----|--0--0----0--0----0--0--|--0--0----0----0--0----| --2--2----2----2--2----|--2--2----2--2----2--2--|--2--2----2----2--2----| --3--3----3----3--3----|--3--3----3--3----3--3--|--2--2----2----2--2----| -----------------------|------------------------|--0--0----0----0--0----| --1--1----0--0----0--0--|--0--0----3----3--3----|--1--1----0--0----0--0--| --1--1----1--1----0--0--|--0--1----1----1--1----|--1--1----1--1----0--0--| --0--0----0--0----0--0--|--0--0----0----0--0----|--0--0----0--0----0--0--| --2--2----2--2----2--2--|--2--2----2----2--2----|--2--2----2--2----2--2--| --2--2----2--2----2--2--|--2--2----2----2--2----|--2--2----2--2----2--2--| --0--0----0--0----0--0--|--0--0----0----0--0----|--0--0----0--0----0--0--| --0--0----3----3--3----|--1--1----0--0----0--0--|--0--0----3----3--3----| --0--1----1----1--1----|--1--1----1--1----0--0--|--0--1----1----1--1----| --2--2----2----2--2----|--2--2----2--2----2--2--|--2--2----2----2--2----| --2--2----2----2--2----|--2--2----2--2----2--2--|--2--2----2----2--2----| --0--0----0----0--0----|--0--0----0--0----0--0--|--0--0----0----0--0----| -----------------------|------------------------|-----------------------| --1--1----0--0----0--0--|--0--0----3----3--3----|--3--3----3--3----3--3--| --1--1----1--1----0--0--|--0--1----1----1--1----|--1--1----1--1----1--1--| --2--2----2--2----2--2--|--2--2----2----2--2----|--2--2----2--2----2--2--| --2--2----2--2----2--2--|--3--3----3----3--3----|--3--3----3--3----3--3--| --0--0----0--0----0--0--|-----------------------|------------------------| ------------------------|-----------------------|------------------------| --8--8----8----5--5----|--5--5----5--5----5--5--||---0--0----3----3--3----| --6--6----6----3--3----|--3--3----3--3----3--3--||---0--1----1----1--1----| --7--7----7----4--4----|--4--4----4--4----4--4--||*--0--0----0----0--0----| --6--6----6----3--3----|--3--3----3--3----3--3--||*--2--2----2----2--2----| --8--8----8----5--5----|--5--5----5--5----5--5--||---3--3----3----3--3----| --6--6----6----3--3----|--3--3----3--3----3--3--||------------------------| --1--1----0--0----0--0--|--0--0----3----3--3----|--1--1----0--0----0--0--| --1--1----1--1----0--0--|--0--1----1----1--1----|--1--1----1--1----0--0--| --0--0----0--0----0--0--|--0--0----0----0--0----|--0--0----0--0----0--0--| --2--2----2--2----2--2--|--2--2----2----2--2----|--2--2----2--2----2--2--| --3--3----3--3----3--3--|--3--3----3----3--3----|--3--3----3--3----3--3--| ------------------------|-----------------------|------------------------| --0--0----3----3--3----|--1--1----0--0----0--0--|--0--0----3----3--3----| --0--1----1----1--1----|--1--1----1--1----0--0--|--0--1----1----1--1----| --0--0----0----0--0----|--0--0----0--0----0--0--|--0--0----0----0--0----| --2--2----2----2--2----|--2--2----2--2----2--2--|--2--2----2----2--2----| --2--2----2----2--2----|--2--2----2--2----2--2--|--2--2----2----2--2----| --0--0----0----0--0----|--0--0----0--0----0--0--|--0--0----0----0--0----| --1--1----0--0----0--0--|--0--0----3----3--3----|--1--1----0--0----0--0--| --1--1----1--1----0--0--|--0--1----1----1--1----|--1--1----1--1----0--0--| --0--0----0--0----0--0--|--2--2----2----2--2----|--2--2----2--2----2--2--| --2--2----2--2----2--2--|--2--2----2----2--2----|--2--2----2--2----2--2--| --2--2----2--2----2--2--|--0--0----0----0--0----|--0--0----0--0----0--0--| --0--0----0--0----0--0--|-----------------------|------------------------| --0--0----3----3--3----|--1--1----0--0----0--0--|--4--6----6----6--6----| --0--1----1----1--1----|--1--1----1--1----0--0--|--4--4----4----4--4----| --2--2----2----2--2----|--2--2----2--2----2--2--|--5--5----5----5--5----| --2--2----2----2--2----|--2--2----2--2----2--2--|--6--6----6----6--6----| --0--0----0----0--0----|--0--0----0--0----0--0--|--6--6----6----6--6----| -----------------------|------------------------|--4--4----4----4--4----| --6--6----6--6----6--6--|--4--6----6----6--6----|--6--6----6--6----6--6---|| --4--4----4--4----4--4--|--4--4----4----4--4----|--4--4----4--4----4--4---|| --5--5----5--5----5--5--|--5--5----5----5--5----|--5--5----5--5----5--5--*|| --6--6----6--6----6--6--|--6--6----6----6--6----|--6--6----6--6----6--6--*|| --6--6----6--6----6--6--|--6--6----6----6--6----|--6--6----6--6----6--6---|| --4--4----4--4----4--4--|--4--4----4----4--4----|--4--4----4--4----4--4---|| --0--0----3----3--3----|--1--1----0--0----0--0--|--1--1----1----1--1----| --0--1----1----1--1----|--1--1----1--1----0--0--|--1--1----1----1--1----| --0--0----0----0--0----|--0--0----0--0----0--0--|--1--2----2----2--2----| --2--2----2----2--2----|--2--2----2--2----2--2--|--3--3----3----3--3----| --3--3----3----3--3----|--3--3----3--3----3--3--|--3--3----3----3--3----| -----------------------|------------------------|--1--1----1----1--1----| --1--1----1--1----0--0--|--0--0----3----3--3----|--1--1----0--0----0--0--| --1--1----1--1----0--0--|--0--1----1----1--1----|--1--1----1--1----0--0--| --2--2----2--2----0--0--|--0--0----0----0--0----|--0--0----0--0----0--0--| --3--3----3--3----2--2--|--2--2----2----2--2----|--2--2----2--2----2--2--| --3--3----3--3----3--3--|--3--3----3----3--3----|--3--3----3--3----3--3--| --1--1----1--1----------|-----------------------|------------------------| --1--1----1----1--1----|--1--1----1--1----0--0--|--0--0----3----3--3----| --1--1----1----1--1----|--1--1----1--1----0--0--|--0--1----1----1--1----| --1--2----2----2--2----|--2--2----2--2----0--0--|--0--0----0----0--0----| --3--3----3----3--3----|--3--3----3--3----2--2--|--2--2----2----2--2----| --3--3----3----3--3----|--3--3----3--3----3--3--|--3--3----3----3--3----| --1--1----1----1--1----|--1--1----1--1----------|-----------------------| --1--1----0--0----0--0--|--0--0----3----3--3----|--1--1----1--1----1--1--| --1--1----1--1----0--0--|--0--1----1----1--1----|--1--1----1--1----1--1--| --0--0----0--0----0--0--|--2--2----2----2--2----|--2--2----2--2----2--2--| --2--2----2--2----2--2--|--3--3----3----3--3----|--3--3----3--3----3--3--| --3--3----3--3----3--3--|-----------------------|------------------------| ------------------------|-----------------------|------------------------| --1--1----1----1--1----|--1--1----1--1--0------|------------------|| --1--1----1----1--1----|--1--1----1--1--1------|------------------|| --2--2----2----2--2----|--2--2----2--2--0------|------------------|| --3--3----3----3--3----|--3--3----3--3--2------|------------------|| -----------------------|----------------3------|------------------|| -----------------------|-----------------------|------------------||

    искать в аптеке
    список лекарств






    О сайтеАккордыХит-парадПоискУроки ФорумыИщу песню
    ПрограммыСвежачок-сПодпискаСтатьи
    Яндекс.Метрика