Табулатура Ber-Linn | Sms гитара табулатуры уроки тексты песен Ber-Linn текст lyrics песня аккорды песни ноты нота электрогитара струна  
   А Б В Г Д Е Ж З И К Л М Н О П Р С Т У Ф Х Ч Ш Ы Э Ю Я       Разные песни
1-9 A B C D E F G H I J K L M N O P Q R S T U V W Y Z      Все исполнители

    



группа Ber-Linn, Табулатура песни Sms

Группа: Ber-Linn - другие аккорды (25),   о группе (7 статей),   диски (3),   фотографии (6)
Табулатура песни: Sms
Просмотров: 1502
Подобрал: Dragoon (d.r.a.g.o.o.n@mail.ru)




    
SMS
E||----------------------|---------------------|----------------------|
B||----------------------|---------------------|----------------------|
G||--7----7----4----4----|---------------------|--7----7----4----4----|
D||----------------------|--5----5----0--------|----------------------|
A||----------------------|---------------------|----------------------|
E||----------------------|---------------------|----------------------|

                                                                   
---------------------|----------------------|---------------------|
---------------------|----------------------|---------------------|
---------------------|--7----7----4----4----|---------------------|
--5----5----4--------|----------------------|--4----5----0--------|
---------------------|----------------------|---------------------|
---------------------|----------------------|---------------------|

                                                                    
----------------------|---------------------|----------------------|
----------------------|---------------------|----------------------|
--7----7----4----4----|---------------------|--7----7----4----4----|
----------------------|--5----4----2--------|----------------------|
----------------------|---------------------|----------------------|
----------------------|---------------------|----------------------|

                                                                   
---------------------|----------------------|---------------------|
---------------------|----------------------|---------------------|
---------------------|--7----7----4----4----|---------------------|
--5----5----2--------|----------------------|--5----5----7--------|
---------------------|----------------------|---------------------|
---------------------|----------------------|---------------------|

                                                                    
----------------------|---------------------|----------------------|
----------------------|---------------------|----------------------|
--7----7----4----4----|---------------------|--7----7----4----4----|
----------------------|--5----5----0--------|----------------------|
----------------------|---------------------|----------------------|
----------------------|---------------------|----------------------|

                                                                   
---------------------|----------------------|---------------------|
---------------------|----------------------|---------------------|
---------------------|--7----7----4----4----|---------------------|
--4----4----5--------|----------------------|--5----5----0--------|
---------------------|----------------------|---------------------|
---------------------|----------------------|---------------------|

                                                                    
----------------------|---------------------|----------------------|
----------------------|---------------------|----------------------|
--7----7----4----4----|---------------------|--7----7----4----4----|
----------------------|--5----5----4--------|----------------------|
----------------------|---------------------|----------------------|
----------------------|---------------------|----------------------|

                                                                   
---------------------|----------------------|---------------------|
---------------------|----------------------|---------------------|
---------------------|--7----7----4----4----|---------------------|
--4----5----0--------|----------------------|--5----4----2--------|
---------------------|----------------------|---------------------|
---------------------|----------------------|---------------------|

                                                                    
----------------------|---------------------|----------------------|
----------------------|---------------------|----------------------|
--7----7----4----4----|---------------------|--7----7----4----4----|
----------------------|--5----5----2--------|----------------------|

Продолжаем грести бабос на ботах в Telegram.
Только в этот раз есть вариант автоматизировать это дело, привлекая рефералов. Вы можете заработать если »

----------------------|---------------------|----------------------| ----------------------|---------------------|----------------------| ---------------------|-------------------|--------------------| ---------------------|-------------------|--------------------| ---------------------|-------------------|--------------------| --5----5----7--------|--------------7----|--0-----------------| ---------------------|-------------------|-------3------------| ---------------------|-------------------|--------------------| --------------------| --------------------| --------------------| --------------------| --2------------0----| --------------------| куплет g d c d g d c d припев g d e b c g d E||----------------------|---------------------|---------------------| B||----------------------|---------------------|---------------------| G||-------5----4---------|------5----4---------|------5----4---------| D||--5--------------5----|----------------5----|----------------5----| A||----------------------|---------------------|---------------------| E||----------------------|---------------------|---------------------| --------------------|----------------------|---------------------| --------------------|----------------------|---------------------| ------5----4--------|-------5----4---------|------5----4---------| --------------------|--7--------------7----|----------------7----| --------------------|----------------------|---------------------| --------------------|----------------------|---------------------| ---------------------|--------------------|----------------------| ---------------------|--------------------|----------------------| ------5----4---------|------5----4--------|--7----5----4----7----| ----------------7----|--------------------|----------------------| ---------------------|--------------------|----------------------| ---------------------|--------------------|----------------------| ---------------------|---------------------|--------------------| ---------------------|---------------------|--------------------| ------5----4----7----|------5----4----7----|------5----4--------| ---------------------|---------------------|--------------------| ---------------------|---------------------|--------------------| ---------------------|---------------------|--------------------| ----------------------|---------------------|---------------------| ----------------------|---------------------|---------------------| -------5----4---------|------5----4---------|------5----4---------| --4--------------4----|----------------4----|----------------4----| ----------------------|---------------------|---------------------| ----------------------|---------------------|---------------------| --------------------|| --------------------|| ------5----4--------|| --------------------|| --------------------|| --------------------||








О сайтеАккордыХит-парадПоискУроки ФорумыИщу песню
ПрограммыСвежачок-сПодпискаСтатьи
Яндекс.Метрика