Табулатура Nightwish | Angels Falls First  (2) гитара табулатуры уроки тексты песен Nightwish текст lyrics песня аккорды песни ноты нота электрогитара струна  
   А Б В Г Д Е Ж З И К Л М Н О П Р С Т У Ф Х Ч Ш Ы Э Ю Я       Разные песни
1-9 A B C D E F G H I J K L M N O P Q R S T U V W Y Z      Все исполнители in english

    



группа Nightwish, Табулатура песни Angels Falls First (2)

Работа в Европе для граждан РФ, Украины, СНГ

  • минимальная зарплата $500.
  • виза и контракт на полгода, возможно продление
  • проживание оплачивает работодатель
  • нужен только загранпаспорт
  • оформление 190 €
  • данное предложение - отличная возможность эмигрировать в Европу и закрепиться здесь навсегда.

  • Мы свяжемся с Вами по WhatsApp или Viber и ответим на любые вопросы.
    на нашем сайте можно почитать подробнее »

    Группа: Nightwish - другие аккорды (414),   о группе (12 статей),   диски (6),   фотографии (25)
    Табулатура песни: Angels Falls First (2)
    Просмотров: 818
    Прислал: Spy[DER] (spyder@nm.ru)




        
    Nightwish - Angels Fall First
    1 гитара (Intro-Outro)
    E|--------0--------------------0-----------------
    B|---------0------------------1-1---------0------
    G|------0---0--------0-------0---0-------2-------
    D|-----2-----2------0-------2-----2-----2--------
    A|----2------------2-------3-----------0---------
    E|---0------------3------------------------------
    2 гитара
    E|----------------------------4-7-6-4-2-4-6-------
    B|------------------------------------------------
    G|------------------------------------------------
    D|--9-8-6-4-1----1-4-3-1-4------------------------
    A|------------------------------------------------
    E|------------------------------------------------
    1 гитара
    E|-------0-----------0-----------3----------2-3-2-----
    B|--------0-----------0-----------0--------------3----
    G|-----0---0-------0---0-------0---0------2-------2---
    D|----2-----2-----2-----2-----0-----0----0---------0--
    A|---2-----------2-----------2------------------------
    E|--0-----------0-----------3-------------------------
    E|-------0-----------0-----------3-----------2--------
    B|--------0-----------0-----------0---------0-0-------
    G|-----0---0-------0---0-------0---0-------2---2------
    D|----2-----2-----2-----2-----0-----0-----1-----1-----
    A|---2-----------2-----------2-----------2------------
    E|--0-----------0-----------3-------------------------
    E|-------0-----------0-----------3----------2-3-2-----
    B|--------0-----------0-----------0--------------3----
    G|-----0---0-------0---0-------0---0------2-------2---
    D|----2-----2-----2-----2-----0-----0----0---------0--
    A|---2-----------2-----------2------------------------
    E|--0-----------0-----------3-------------------------
    E|-------0-----------0-----------3-----------2--------
    B|--------0-----------0-----------0---------0---------
    G|-----0---0-------0---0-------0---0-------2----------
    D|----2-----2-----2-----2-----0-----0-----1-----------
    A|---2-----------2-----------2-----------2------------
    E|--0-----------0-----------3-------------------------
    [Chorus]
    E|-------0-----------3---2-------0----------0---------
    B|--------0-----------0---0-------1--------3-3--1-----
    G|-----0---0-----------0-------0---0------0---0--0----
    
    Узнай ВСЕ о своем друге в ВК или FB
    D|----2-----2-----0-----------2-----2----0------------ A|---2-----------2-----------3------------------------ E|--0-----------3------------------------------------- E|-------0-----------3---2-------0----------0--------- B|--------0-----------0---0-----1-1--------3-3--1----- G|-----0---0-----------0-------0---0------0---0--2---- D|----2-----2-----0-----------2-----2----0------------ A|---2-----------2-----------3------------------------ E|--0-----------3------------------------------------- E|-------------------3---0------2----------0---------- B|-----1--1-----------0---1----3-3----------0--1------ G|------0--0-----------0------2---2------0---0--0----- D|---2------2-----0----------0-----0----2------------- A|--3--------3---2---------------------2-------------- E|--------------3------------------------------------- E|------0------------3---2---------------------------- B|-----1-1------------0---0-----0--------------------- G|----0---0------------0-------0---------------------- D|---2-----2------0-----------0----------------------- A|--3------------2-----------2------------------------ E|--------------3------------------------------------- (Intro-Outro) E|--------0--------------------0----------------- B|---------0------------------1-1---------0------ G|------0---0--------0-------0---0-------2------- D|-----2-----2------0-------2-----2-----2-------- A|----2------------2-------3-----------0--------- E|---0------------3------------------------------ 2 гитара E|---0-0-0--2-3------------------0-3-2-0--0------ B|----------------0--0-1-3-1-0-----------3------- G|-----------------------------0----------------- D|----------------------------------------------- A|----------------------------------------------- E|----------------------------------------------- E|---0-0-0--2-3---------------------------------- B|----------------0--0-1-3-1-0------------------- G|-----------------------------0-2--------------- D|----------------------------------------------- A|----------------------------------------------- E|-----------------------------------------------

    искать в аптеке
    список лекарств






    О сайтеАккордыХит-парадПоискУроки ФорумыИщу песню
    ПрограммыСвежачок-сПодпискаСтатьи
    Яндекс.Метрика