Табулатура Travis | Dear Diary гитара табулатуры уроки тексты песен Travis текст lyrics песня аккорды песни ноты нота электрогитара струна  
   А Б В Г Д Е Ж З И К Л М Н О П Р С Т У Ф Х Ч Ш Ы Э Ю Я       Разные песни
1-9 A B C D E F G H I J K L M N O P Q R S T U V W Y Z      Все исполнители

    



группа Travis, Табулатура песни Dear Diary

Группа: Travis - другие аккорды (60),   диски (4),   фотографии (3)
Табулатура песни: Dear Diary
Просмотров: 814
Прислал: I)estym (who_is_destym@yahoo.com)




    
ear Diary Tab by Travis
Travis-"Dear Diary" (from "The Invisible Band")
Intro.
e---6-------6-----4-------4------  --6-------6--(-4-----------
b-----5---5---------5---6--------  ----5---5-----)5-----------
g-6-----6-------6-----6----------X3-6----6------(-6-----------
d--------------------------------  ---------------------------
a--------------------------------  ---------------------------
E--------------------------------  ---------------------------

e---6-------6-----4-------4-----2-------2------0h2p0---------
b-----5---5---------5---5---------4---4------4-------4-------
g-6-----6-------6-----6-------4-----4------4-----------------
d------------------------------------------------------------
a------------------------------------------------------------
E------------------------------------------------------------
     Dear       Di______________ry 
e---6-------6-----4-------4-----2-------2------0h2p0---------
b-----5---5---------5---5---------4---4------4-------4-------
g-6-----6-------6-----6-------4-----4------4-----------------
d------------------------------------------------------------
a------------------------------------------------------------
E------------------------------------------------------------
     What is     wrong  with    me?

e---6-------6-----4-------4-----6-------6---4-------4--------
b-----5---5---------5---5---------5---5-------5---5---------- 
g-6-----6-------6-----6-------8-----6-----6-----6------------
d------------------------------------------------------------
a------------------------------------------------------------
E------------------------------------------------------------

Cus i'm          fine           between the    lines
e---4-------4---
b-----5---5-----

Продолжаем грести бабос на ботах в Telegram.
Только в этот раз есть вариант автоматизировать это дело, привлекая рефералов. Вы можете заработать если »

g-6-----6-------X3 d--------------- a--------------- E--------------- e---6-------6-----4-------4-----6-------6----6-------6------- b-----5---5---------5---5---------5---5--------7---7--------- g-6-----6-------6-----6-------8-----6------8-----8----------- d------------------------------------------------------------ a------------------------------------------------------------ E------------------------------------------------------------ Be not afraid e---6-------6-----4-------4-----6-------6----6-------6------- b-----5---5---------5---5---------7---7--------7---7--------- g-6-----6-------6-----6-------8-----6------8-----8----------- d------------------------------------------------------------ a------------------------------------------------------------ E------------------------------------------------------------ Help is on the way e---6-------6-----4-------4-----6-------6----4-------4------- b-----5---5---------5---5---------7---7--------5---5--------- g-6-----6-------6-----6-------8-----6------6-----6----------- d------------------------------------------------------------ a------------------------------------------------------------ E------------------------------------------------------------ A sen______________tence suspended in air e-------------- b---7-------7-- g-----8---8----X5 d-8-----8------ a-------------- E-------------- way over there

www.Ultimate-Guitar.Com







О сайтеАккордыХит-парадПоискУроки ФорумыИщу песню
ПрограммыСвежачок-сПодпискаСтатьи
Яндекс.Метрика